Search tabs and chords

Browse bands and artists

A B C D E F G H I J K L M N O P Q R S T U V W X Y Z #

Log in

[ Register here | Forgot password ]

Guitar Tabs Explorer
Print

Guitar tabs with lyrics:

Urban Struggle tab by The Vandals

Vandals
Urban Struggle

This is the "Sweating to the Oldies" version (live recording).
Any garage band with a singer who's got a sense of humor can play
this with great success at your local party or whatever.  Have fun.
Tabed by Michael (av455@lafn.org)

E|----------------|----------------|--------------------|
B|----------------|----------10~~--|--------------------|
G|-----7--9-------|---7--9---------|--7-6---------9-----|
D|-----------9~~--|----------------|------9--7~~----9~~-|
A|----------------|----------------|--------------------|
E|----------------|----------------|--------------------|


I want to be a ...
I'm born to be a ...
I'm going to be ...
I want to be a ...A Cowboy! Whooeee!!!

play this 3X.......on 4th play like this
|----------------|                 |-------------------------|
|----------------|                 |-------------------------|
|----------------|                 |-------------------4--2--|
|---------0~~----|                 |-------------3-----5--2--|
|-----2----------|                 |-------2-------3-3-5--0--|
|-0-3---3--------|                 |---0-3---3-3-------3-----|


(^=pull off) repeat 6x and on 6th play like this:
|----------------|                 |-------------------|
|----------------|                 |-------------------|
|--------0~~-----|                 |--------0~~---0~~--|
|--3^2^0-----0---|                 |--3^2^0-----0------|
|----------------|                 |-------------------|
|----------------|                 |-------------------|
                                           drop last note
                                           with trem. bar.
Ho! (Start Fast part)

D A D A (C) D A D A
D A D A (C) D A D A
F C F C (E) F C F C
D A D A (C) D A D A
G F# G F#

End with a D then

|----------------|
|----------------|
|----------------|
|---------0~~----|
|-----2----------|
|-0-3---3--------| Then another D to end


( I couldn't make it as a Punker )

Comments

The Vandals guitar tabs for Urban struggle