Guitar Tabs Explorer
The Vandals guitar tabs for Ive got an ape drape

I've Got An Ape Drape tab


Be the first to rate

I've Got An Ape Drape tab by The Vandals

Guitar tabs with lyrics

Print

Vandals - I've Got An Ape Drape
Submitted By: Jason Lee
EMail: loser_guitarist@hotmail.com
album: Hitler Bad, Vandals Good

this is the real part, i know because i figured it out
along with the song so it's most definitely right

for the two A chord diagramAA chords, just play whichever is easier

the chords:
   C chord diagramCC   G chord diagramGG   A chord diagramAA or A chord diagramAA   D chord diagramDD   E chord diagramEE   B chord diagramBB   F chord diagramFF
E chord diagramEE:-------------------------------------------------
B chord diagramBB:-------------------------------------------------
G chord diagramGG:-5------------2---7---9---4---10-----------------
D chord diagramDD:-5---5---7----2---7---9---4---10-----------------
A chord diagramAA:-3---5---7----0---5---7---2---8------------------
E chord diagramEE:-----3---5---------------------------------------

riff 1:
E chord diagramEE:-----------------|----------------|--------|--------|
B chord diagramBB:-----------------|----------------|--------|--------|
G chord diagramGG:-5---5---5---9---|10--10--9---5---|7-------|--------|
D chord diagramDD:-x---x---x---x---|x---x---x---x---|x-------|5-------|
A chord diagramAA:-3---3---3---7---|8---8---7---3---|5-------|x-------|
E chord diagramEE:-----------------|----------------|--------|3-------|
   1 + 2 + 3 + 4 + |1 + 2 + 3 + 4 + |1 2 3 4 |1 2 3 4 |

intro/chorus:
C chord diagramCC    |G chord diagramGG A chord diagramAA G chord diagramGG |C chord diagramCC    |D chord diagramDD E chord diagramEE D chord diagramDD |G chord diagramGG    | B chord diagramBB   |B chord diagramBB B chord diagramBB B chord diagramBB B|A B chord diagramBB C chord diagramCC |

verse (palm muted):
C chord diagramCC    |E chord diagramEE     |F chord diagramFF    |E chord diagramEE     | riff 1 |
stop palm muting
C chord diagramCC    |E chord diagramEE     |F chord diagramFF    |E chord diagramEE     |F chord diagramFF  C chord diagramCC  |E chord diagramEE  B chord diagramBB  |F chord diagramFF C chord diagramCC E chord diagramEE B|C   |

bridge:
E chord diagramEE:----------------|----------------|----------------|
B chord diagramBB:----------------|----------------|----------------|
G chord diagramGG:----------------|----------------|-----2-3-5-3-2--|
D chord diagramDD:-----2-3-5-3-2--|-----2-3-5-3-2--|-3-5------------|
A chord diagramAA:-3-5------------|-3-5------------|----------------|
E chord diagramEE:----------------|----------------|----------------|

E chord diagramEE:----------------|----------------|----------------|
B chord diagramBB:----------------|----------------|----------------|
G chord diagramGG:----------------|----------------|----------------|
D chord diagramDD:-----2-3-5-3-2--|----------------|-----2-3-5-3-2--|
A chord diagramAA:-3-5------------|-----2-3-5-3-2--|-3-5------------|
E chord diagramEE:----------------|-3-5------------|----------------|

E chord diagramEE:----------------|----------------|----------------|----------------|
B chord diagramBB:----------------|----------------|----------------|----------------|
G chord diagramGG:----------------|----------------|----------------|----------------|
D chord diagramDD:-5-2-3-2---2-3-2|-5-2-3-2---2-3-2|-----0-2-0-0----|-----0-2-0-0----|
A chord diagramAA:---------5------|---------5------|-3-3---------3-0|-3-3---------3-0|
E chord diagramEE:----------------|----------------|----------------|----------------|

and that's the song!

tabbed out 10/30/by =jl=
I'VE GOT AN APE DRAPE - Vandals

By: Brian Jipson
    Jipson19@cs.com

* = strike chord 8 times
+ = strike chord 4 times

				Chorus/Intro
e|---------------------------------------------------------------------------|
B|---------------------------------------------------------------------------|
G|-5*---------5*--9-9-7----------4--4*-2-4-5---------------------------------|
D|-5*--7-7-5--5*--9-9-7--5*--5-5-4--4*-2-4-5---------------------------------|
A|-3*--7-7-5--3*--7-7-5--5*--5-5-2--2*-0-2-3---------------------------------|
E|-----5-5-3-------------3*--3-3---------------------------------------------|

                                Verse
e|---------------------------------------------------------------------------|
B|---------------------------------------------------------------------------|
G|-5*-9*-10*-9*-5*-9*-7*----5*-9*-10*-9*-10+-7+-9+-5+-10+-9-7-5--------------|
D|-5*-9*-10*-9*-5*-9*-7*-5*-5*-9*-10*-9*-10+-7+-9+-5+-10+-9-7-5--------------|
A|-3*-7*--8*-7*-3*-7*-5*-5*-3*-7*--8*-7*--8+-5+-7+-3+--8+-7-5-3--------------|
E|-----------------------3*--------------------------------------------------|

                               Bridge(each chord is held)
e|---------------------------------------------------------------------------|
B|---------------------------------------------------------------------------|
G|-5-5-10-5---5---5----------------------------------------------------------|
D|-5-5-10-5-5-5-5-5----------------------------------------------------------|
A|-3-3--8-3-5-3-5-3----------------------------------------------------------|
E|----------3---3------------------------------------------------------------|




I'VE GOT AN APE DRAPE - The Vandals

By: Jeremy Locarni

intro
e|----------------------------------------------------------
B|----------------------------------------------------------
G|-5-------5-7-9-7---------4-2-4-5--------------------------
D|-5-7-9-5-5-7-9-7-5-2-5-7-4-2-4-5--------------------------
A|-3-7-9-5-3-5-7-5-5-2-5-7-2-0-2-3--------------------------
E|---5-7-3---------3-0-3-5----------------------------------

Comment this song and these guitar tabs

Do you have corrections, comments on the guitar tabs, thoughts about the song or a message to the author? Write them below.