Search tabs and chords

Browse bands and artists

A B C D E F G H I J K L M N O P Q R S T U V W X Y Z #

Log in

[ Register here | Forgot password ]

Guitar Tabs Explorer
Print

Guitar tabs

Happy Birthday To Me tab by The Vandals

Intro/Chorus 
D G A 
e|------------------------------------------------------------------| 
B|------------------------------------------------------------------| 
G|---7-7-7----------------------------------------------------------| 
D|---7-7-7-5-5-7-7-7-7-7-7-7----------------------------------------| 
A|---5-5-5-5-5-7-7-7-7-7-7-7----------------------------------------| 
E|---------3-3-5-5-5-5-5-5-5----------------------------------------| 

Verse 
D B 
e|--------------------------------------------------------------------| 
B|--------------------------------------------------------------------| 
G|--7-7-7-7-7-7-7-7--4-4-4-4-4-4-4-4-4-4-4-4-4-4----------------------| 
D|--7-7-7-7-7-7-7-7--4-4-4-4-4-4-4-4-4-4-4-4-4-4----------------------| 
A|--5-5-5-5-5-5-5-5--2-2-2-2-2-2-2-2-2-2-2-2-2-2----------------------| 
E|--------------------------------------------------------------------| 
It's my birthday and I'll do what I want to 

D B 
e|--------------------------------------------------------------------| 
B|--------------------------------------------------------------------| 
G|--7-7-7-7--4-4-4-4-4-4-4-4-4----------------------------------------| 
D|--7-7-7-7--4-4-4-4-4-4-4-4-4----------------------------------------| 
A|--5-5-5-5--2-2-2-2-2-2-2-2-2----------------------------------------| 
E|--------------------------------------------------------------------| 
*** you it's my birthday 

D B E D 
e|--------------------------------------------------------------------| 
B|--------------------------------------------------------------------| 
G|--7-7-7-7-7-7-7-7-4-4-4-4-4-4-4-4-9-9-9-9-9-7-7-7-7-7---------------| 
D|--7-7-7-7-7-7-7-7-4-4-4-4-4-4-4-4-9-9-9-9-9-7-7-7-7-7---------------| 
A|--5-5-5-5-5-5-5-5-2-2-2-2-2-2-2-2-7-7-7-7-7-5-5-5-5-5---------------| 
E|--------------------------------------------------------------------| 

A special holiday only for me, so do what I say, 

(Repeat Verse) 

Riff 1 
e|--------------------------------------------------------------------| 
B|--------------------------------------------------------------------| 
G|--------------------------------------------------------------------| 
D|----------7---------------------------------------------------------| 
A|--------5---5-------------------------------------------------------| 
E|--3-5-7-------5-7-7-7-7-7-7-7-7-7-7--Repeat-------------------------| 

For 24 hours your wishing me well..... 

Chorus x 4 
Verse x 2 
Riff 1 x 2 
Chorus x 4 

Bridge 
G D Gii Aii 
e|--------------------------------------------------------------------| 
B|--------------------------------------------------------------------| 
G|------------------------------12-12-12-12-14-14-14-14-14------------| 
D|-5-5-5-5-7-7-7-7-7------------12-12-12-12-14-14-14-14-14-Repeat x --| 
A|-5-5-5-5-7-7-7-7-7-Repeat x 1 10-10-10-10-12-12-12-12-12------------| 
E|-3-3-3-3-5-5-5-5-5--------------------------------------------------| 

Spank Me Spank Me 

Chorus x 4 
Verse x 2 

Riff 2 
e|--------------------------------------------------------------------| 
B|--------------------------------------------------------------------| 
G|--------------------------------------------------------------------| 
D|---------------12---------------------------------------------------| 
A|------------11----11---------------------Repeat x 1-----------------| 
E|---10-12-14----------12-14-14-14-14-14------------------------------| 

24 hours no wishing well ......... 

Chorus x4

Comments

The Vandals guitar tabs for Happy birthday to me