Search tabs and chords

Browse bands and artists

A B C D E F G H I J K L M N O P Q R S T U V W X Y Z #

Log in

[ Register here | Forgot password ]

Guitar Tabs Explorer
Print

Guitar tabs :

Mack The Knife Live tab by Dave Van Ronk

  • Capo on 7th fret
Title: Mack the Knife
Album: Live at Sir George Williams University
Progression A - A6 - Bm/F# - Eadd9 - A6 - Aadd9 - Bm/F# - E - A6


Intro
                           and the
E|----------------------------0------|
B|-----2-------2-------2---2---------|
G|-------------------------------2---|
D|-----2-------2-------2---------2---|
A|-0-------0-------0-------0---------|
E|-----------------------------------|

Verses
   shark has                       pretty teeth dear                       and he
E|-2------2-----------------------0------|-2------2-------------------------0------|
B|-2------2------------------0h2---------|-3------3-------------------3------------|
G|-2------2------------------------------|-4------4-------------4------------------|
D|-----2---------2-------2-----------2---|-----4---------4---------4-----------4---|
A|-0---------0-------0---------0---------|-2-----------------2---------------------|
E|---------------------------------------|-----------2-------------------2---------|

   shows them                  pearly white                                  just A
E|-2------2-------------------------0------|-2-----------------------------0--4------|
B|-0------0--------------------0h2---------|-2--------------------------2------------|
G|-1------1-------------1--------------1---|-2------2-------------2------------------|
D|-----2---------2---------2-----------2---|-----2---------2---------2-----------2---|
A|-----------2-------------------2---------|-0---------0-------0-----------0---------|
E|-0-----------------0---------------------|-----------------------------------------|

  jack - knife               has macheath dear                               and he
E|-7------5-------------------5-----2------|-5--------------------------------0------|
B|-2------2-------------2-----2-----2------|-3------3-------------------3------------|
G|-2------2--------------------------------|-4------4-------------4------------------|
D|-----2---------2---------2-----------2---|-----4---------4---------4-----------4---|
A|-0---------0-------0-----------0---------|-2-----------------2---------------------|
E|-----------------------------------------|-----------2-------------------2---------|

   keeps it                          out of sight
E|-5-----------------------------5-----4-----|-2------------------------------0------|
B|-0------0----------------0--------0-----0--|-2-------------------------0h2---------|
G|--------1-------------1-----1--------------|-2------2--------------------------2---|
D|-----2---------2---------2-----------2-----|-----2---------2-------2-----------2---|
A|-------------------------------------------|-0---------0-------0---------0---------|
E|-0---------0-------0-----------0-----------|---------------------------------------|

***********************************

| h   Hammer-on

Comments

Dave Van Ronk guitar tabs for Mack the knife live