Log in

One click and you are in

Login with Facebook Login with Google

Why sign up and log in

Guitar Tabs Explorer
Van Gogh guitar tabs for Neumeren u svemu

Guitar tabs

Tuning: Standard (E A D G B E)



Intro:

e|-------------------------------------------|
B|-------------------------------------------|
G|-4--4--x--2--------------------------------|
D|-4--4--x--2--2-----------------------------|
A|-2--2--x--0--2-----------------------------| x3
E|-------------0--7--0--5--0-----------------|

e|-------------------------------------------|
B|-------------------------------------------|
G|-4--4--x--2--------------------------------|
D|-4--4--x--2--2~~~--------------------------|
A|-2--2--x--0--2~~~--------------------------|
E|-------------0~~~--------------------------|



Verse 1:

Rif ide nakon svaog stiha
e|-------------------------------------------------|
B|-------------------------------------------------|
G|-------------------------------------------------|
D|-------------------------------------------------|
A|-7-7-7-7-5-7-5-----------------------------------| x8
E|-----------------5-7-----------------------------|


Chorus:

Gitara I
e|---------------------------------------------------------------------------|
B|---------------------------------------------------------------------------|
G|---------2-------4---------------7----4----7-------------------------------|
D|-5-------2-------4----------2----7----4----7-7-----------------------------|
A|-5-------0-------2----------2----5----2----5-7-----------------------------|
E|-3--------------------------0----------------5-----------------------------|

e|---------------------------------------------------------------------------|
B|---------------------------------------------------------------------------|
G|---------2-------4----------------7----4-----------------------------------|
D|-5-------2-------4-----------2----7----4-----------------------------------|
A|-5-------0-------2-----------2----5----2-----------------------------------|
E|-3---------------------------0--------------7-6-5-3------------------------|

e|---------------------------------------------------------------------------|
B|---------------------------------------------------------------------------|
G|---------2-------4----------------7----4----7------------------------------|
D|-5-------2-------4-----------2----7----4----7-7----------------------------|
A|-5-------0-------2-----------2----5----2----5-7----------------------------|
E|-3---------------------------0----------------5----------------------------|

e|---------------------------------------------------------------------------|
B|---------------------------------------------------------------------------|
G|---------2-------4-----------------------7---7-----------------------------|
D|-5-------2-------4-----------2----5------7-7-7-7-9~~~----------------------|
A|-5-------0-------2-----------2----5------5-7-5-7-9~------------------------|
E|-3---------------------------0----3--------5---5-7~~~----------------------|


Gitara II
e|---------------------------------------------------------------------------|
B|---------------------------------------------------------------------------|
G|---7-9-9b-9-7-9b-9-7-9b-9-7-------7----4----7------------------------------|
D|-9---------------------------2----7----4----7-7----------------------------|
A|-----------------------------2----5----2----5-7----------------------------|
E|-----------------------------0----------------5----------------------------|

e|---------------------------------------------------------------------------|
B|---------------------------------------------------------------------------|
G|---7-9-9b-9-7-9b-9-7-9b-9-7-------7----4-----------------------------------|
D|-9---------------------------2----7----4----9-8-7-5------------------------|
A|-----------------------------2----5----2-----------------------------------|
E|-----------------------------0---------------------------------------------|

e|---------------------------------------------------------------------------|
B|---------------------------------------------------------------------------|
G|---7-9-9b-9-7-9b-9-7-9b-9-7-------7----4----7------------------------------|
D|-9---------------------------2----7----4----7-7----------------------------|
A|-----------------------------2----5----2----5-7----------------------------|
E|-----------------------------0----------------5----------------------------|

e|---------------------------------------------------------------------------|
B|---------------------------------------------------------------------------|
G|---7-9-9b-9-7-9b-9-7-9b-9-7--------------7---7-----------------------------|
D|-9---------------------------2----5------7-7-7-7-9~~~----------------------|
A|-----------------------------2----5------5-7-5-7-9~------------------------|
E|-----------------------------0----3--------5---5-7~~~----------------------|


************************************

| x  Dead note
| ~  Vibrato
| b  Bend

************************************

Almost there ...

Sign in to get your own page with links to favourite songs and more. You are just one click away...

Login with Facebook Login with Google