Log in

One click and you are in

Login with Facebook Login with Google

Why sign up and log in

Guitar Tabs Explorer
Sharon Van Etten bass tabs for Seventeen

Bass tabs

Verse 1: (Bass enters at 0:38, mid verse)

G|---------------------------------------------------------|
D|---------------------------------------------------------| (x2)
A|-1-1--1-1-1--1-1-1--1-----1-1----------------------------|
E|----------------------3-3-----3-3--3-3-3--3-3-3--3-3-3-3-|


Chorus: (X2)

G|------------------------------------------------------------------------|
D|---------------/8-8--8-------8------------------------------------------|
A|-1-1--1-1-1--1---------10-10-----10-10--10-10-10--10-10-10--10-13-13-10-|
E|------------------------------------------------------------------------|

G|------------------------------------------------------------|
D|------------------------------------------------------------|
A|-8-8--8-8-8--8-8-8--8-8-8-10---6-6--6-6-6--6-6-6--6-6-6-8-8-|
E|------------------------------------------------------------|


Verse 2:

G|---------------------------------------------------------|
D|---------------------------------------------------------| (x4)
A|-1-1--1-1-1--1-1-1--1-----1-1----------------------------|
E|----------------------3-3-----3-3--3-3-3--3-3-3--3-3-3-3-|


Chorus: (X2)

G|------------------------------------------------------------------------|
D|---------------/8-8--8-------8------------------------------------------|
A|-1-1--1-1-1--1---------10-10-----10-10--10-10-10--10-10-10--10-13-13-10-|
E|------------------------------------------------------------------------|

G|------------------------------------------------------------|
D|------------------------------------------------------------|
A|-8-8--8-8-8--8-8-8--8-8-8-10---6-6--6-6-6--6-6-6--6-6-6-8-8-|
E|------------------------------------------------------------|


Bridge:

G|------------------------------------------------------------|
D|------------------------------------------------------------|
A|-1-1--1-1-1--1-1-1--1-1-1-1-1-------------------------------|\
E|-------------------------------3-3--3-3-3--3-3-3--3-3-3-3-3-| \
                                 (x2)
G|------------------------------------------------------------| /
D|------------------------------------------------------------|/
A|--------------------------8-8-6-6--6-6-6--6-6-6--6-6-6-8----|
E|-1-1--1-1-1--1-1-1--1-1-1-----------------------------------|

G|---------------------------------------------------------|
D|---------------------------------------------------------|
A|-1-1--1-1-1--1-1-1--1-----1-1----------------------------|
E|----------------------3-3-----3-3--3-3-3--3-3-3--3-3-3-3-|

G|------------------------------------------------------------------------|
D|------------------------------------------------------------------------|
A|-1----------------------------------------------------------------------|
E|--------------------------------3-3-3-3-3-3-3-3/15-15-15-15-15-15-15-15-|

G|---------------------------------------------------------------------|
D|---------------------------------------------------------------------|
A|-1-1-1-1-1-1-1-1-1-1-1-1-1-1-1-1-------------------------------------|
E|---------------------------------3-3-3-3-3-3-3-3/15-15-15-15-3-3-3-3-|

G|-------------------------------------------------------------------------|
D|-------------------------------------------------------------------------|
A|-1-1-1-1-1-1-1-1-1-1-1-1-1-1-1-1-----------------------------------------|
E|---------------------------------3-3-3-3-3-3-3-3/15-15-15-15-15-15-15-15-|


Chorus: (x2)

G|------------------------------------------------------------------------|
D|---------------/8-8--8-------8------------------------------------------|
A|-1-1--1-1-1--1---------10-10-----10-10--10-10-10--10-10-10--10-13-13-10-|
E|------------------------------------------------------------------------|

G|------------------------------------------------------------|
D|------------------------------------------------------------|
A|-8-8--8-8-8--8-8-8--8-8-8-10---6-6--6-6-6--6-6-6--6-6-6-8-8-|
E|------------------------------------------------------------|


Outro:

G|------------------------------------------------------------|
D|------------------------------------------------------------|
A|-1-1--1-1-1--1-1-1--1-1-1-1-1-------------------------------|
E|-------------------------------3-3--3-3-3--3-3-3--3-3-3-3-3-|

G|------------------------------------------------------------|
D|------------------------------------------------------------|
A|--------------------------8-8-6-6--6-6-6--6-6-6--6-6-6-8----|
E|-1-1--1-1-1--1-1-1--1-1-1-----------------------------------|


| /  Slide up
| \  Slide down

Almost there ...

Sign in to get your own page with links to favourite songs and more. You are just one click away...

Login with Facebook Login with Google