Search tabs and chords

Search for song, artist or band

Log in

One click and you are in

Login with Facebook Login with Google

Why sign up and log in

Guitar Tabs Explorer
Vampire Weekend guitar tabs for Unbearably white

Guitar tabs with lyrics

Tuning: Standard (E chord diagramEE A chord diagramAA D chord diagramDD G chord diagramGG B chord diagramBB E chord diagramEE)

Difficulty: Novice

Intro:

    Cdim chord diagramCdimCdim          Bb chord diagramBbBb                    F chord diagramFF      Eb chord diagramEbEb       C5 chord diagramC5C5         G5 chord diagramG5G5        Bb chord diagramBbBb           F chord diagramFF      Eb chord diagramEbEb
e|---------------------------------------------------|-----------------------------------------------|
B|----13--11------11--x-------15--------13--x--11----|--------------------------15--------13--x--11--|
G|---11-----------10--x---------15------14--x--12----|----------------------------15------14--x--12--|
D|--13--------13--12--x---/15-----15----15--x--13----|--10--10-----5--------/15-----15----15--x--13--| x2
A|---------------------------------------------------|--10--10-----5---------------------------------|
E|---------------------------------------------------|--8---8------3---------------------------------|
x = mute string
/ = slide-up
Verse 1:

    Cdim chord diagramCdimCdim          Bb chord diagramBbBb                    F chord diagramFF      Eb chord diagramEbEb       C5 chord diagramC5C5         G5 chord diagramG5G5        Bb chord diagramBbBb           F chord diagramFF      Eb chord diagramEbEb
e|---------------------------------------------------|-----------------------------------------------|
B|----13--11------11--x-------15--------13--x--11----|--------------------------15--------13--x--11--|
G|---11-----------10--x---------15------14--x--12----|----------------------------15------14--x--12--|
D|--13--------13--12--x---/15-----15----15--x--13----|--10--10-----5--------/15-----15----15--x--13--|
A|---------------------------------------------------|--10--10-----5---------------------------------|
E|---------------------------------------------------|--8---8------3---------------------------------|
    Baby     I    love you,  but that's not   enough, and pulling away   has   been   unbearably buff

    Cdim chord diagramCdimCdim          Bb chord diagramBbBb                    F chord diagramFF      Eb chord diagramEbEb       C5 chord diagramC5C5         G5 chord diagramG5G5        Bb chord diagramBbBb           F chord diagramFF      Eb chord diagramEbEb
e|---------------------------------------------------|-----------------------------------------------|
B|----13--11------11--x-------15--------13--x--11----|--------------------------15--------13--x--11--|
G|---11-----------10--x---------15------14--x--12----|----------------------------15------14--x--12--|
D|--13--------13--12--x---/15-----15----15--x--13----|--10--10-----5--------/15-----15----15--x--13--|
A|---------------------------------------------------|--10--10-----5---------------------------------|
E|---------------------------------------------------|--8---8------3---------------------------------|
  I ran  up  the  mountain,        out of your sight, the snow on the peak was  just  unbearably white

    Cdim chord diagramCdimCdim                  Bb chord diagramBbBb                            Cdim chord diagramCdimCdim                  Bb chord diagramBbBb
e|---------------------------------------------------|-----------------------------------------------|
B|--------10—h13-p10-------------------11------------|--------10—h13-p10------------------15---------|
G|-----11--------------------------10------10--x-----|-----11-----------------------------15--15--x--|
D|--13----------------13--12-------------------------|--13----------------13--12-----/15-------------| x2
A|---------------------------------------------------|-----------------------------------------------|
E|---------------------------------------------------|-----------------------------------------------|

    Cdim chord diagramCdimCdim          Bb chord diagramBbBb                    F chord diagramFF      Eb chord diagramEbEb       C5 chord diagramC5C5         G5 chord diagramG5G5        Bb chord diagramBbBb           F chord diagramFF      Eb chord diagramEbEb
e|---------------------------------------------------|-----------------------------------------------|
B|----13--11------11--x-------15--------13--x--11----|--------------------------15--------13--x--11--|
G|---11-----------10--x---------15------14--x--12----|----------------------------15------14--x--12--|
D|--13--------13--12--x---/15-----15----15--x--13----|--10--10-----5--------/15-----15----15--x--13--|
A|---------------------------------------------------|--10--10-----5---------------------------------|
E|---------------------------------------------------|--8---8------3---------------------------------|
The city   was    freezing,         an elegant flow, the wind at the doorway   was   unbearably  cold

    Cdim chord diagramCdimCdim          Bb chord diagramBbBb                    F chord diagramFF      Eb chord diagramEbEb       C5 chord diagramC5C5         G5 chord diagramG5G5        Bb chord diagramBbBb           F chord diagramFF      Eb chord diagramEbEb
e|---------------------------------------------------|-----------------------------------------------|
B|----13--11------11--x-------15--------13--x--11----|--------------------------15--------13--x--11--|
G|---11-----------10--x---------15------14--x--12----|----------------------------15------14--x--12--|
D|--13--------13--12--x---/15-----15----15--x--13----|--10--10-----5--------/15-----15----15--x--13--|
A|---------------------------------------------------|--10--10-----5---------------------------------|
E|---------------------------------------------------|--8---8------3---------------------------------|
 You walked to the bedroom  and  sat  down to write, the page in your notebook   was  unbearably white

Chorus 1:

    C5 chord diagramC5C5                                                  G5 chord diagramG5G5                         F5 chord diagramF5F5
e|---------------------------------------------------|-----------------------------------------------|
B|---------------------------------------------------|-----------------------------------------------|
G|--5--5---------5--5---------5--5---------5--5------|-----------------------------------------------|
D|--5--5---------5--5---------5--5---------5--5------|--5--5----------5--5---------3--3--------3--3--|
A|--3--3---------3--3---------3--3---------3--3------|--5--5----------5--5---------3--3--------3--3--|
E|---------------------------------------------------|--3--3----------3--3---------1--1--------1--1--|
        There's an avalanche  coming,                          don't  cover  your  eyes

    C5 chord diagramC5C5                                                  G5 chord diagramG5G5                         F5 chord diagramF5F5
e|---------------------------------------------------|-----------------------------------------------|
B|---------------------------------------------------|-----------------------------------------------|
G|--5--5---------5--5---------5--5---------5--5------|-----------------------------------------------|
D|--5--5---------5--5---------5--5---------5--5------|--5--5----------5--5---------3--3--------3--3--|
A|--3--3---------3--3---------3--3---------3--3------|--5--5----------5--5---------3--3--------3--3--|
E|---------------------------------------------------|--3--3----------3--3---------1--1--------1--1--|
         It's what you thought that you wanted,                  it's still a surprise

    C5 chord diagramC5C5                                                  G5 chord diagramG5G5                         F5 chord diagramF5F5
e|---------------------------------------------------|-----------------------------------------------|
B|---------------------------------------------------|-----------------------------------------------|
G|--5--5---------5--5---------5--5---------5--5------|-----------------------------------------------|
D|--5--5---------5--5---------5--5---------5--5------|--5--5----------5--5---------3--3--------3--3--|
A|--3--3---------3--3---------3--3---------3--3------|--5--5----------5--5---------3--3--------3--3--|
E|---------------------------------------------------|--3--3----------3--3---------1--1--------1--1--|
             It's hard on the body,                              it's hard on the mind

    D5 chord diagramD5D5                        G5 chord diagramG5G5                        C5 chord diagramC5C5                         F5 chord diagramF5F5
e|---------------------------------------------------|-----------------------------------------------|
B|---------------------------------------------------|-----------------------------------------------|
G|--7--7---------7--7--------------------------------|--5--5----------5--5---------------------------|
D|--7--7---------7--7---------5--5---------5--5------|--5--5----------5--5---------3--3--------3--3--|
A|--5--5---------5--5---------5--5---------5--5------|--3--3----------3--3---------3--3--------3--3--|
E|----------------------------3--3---------3--3------|-----------------------------1--1--------1--1--|
   To learn what  kept  us  together  darling,                is what kept   us   alive

    Cdim chord diagramCdimCdim          Bb chord diagramBbBb                    F chord diagramFF      Eb chord diagramEbEb       C5 chord diagramC5C5         G5 chord diagramG5G5        Bb chord diagramBbBb           F chord diagramFF      Eb chord diagramEbEb
e|---------------------------------------------------|-----------------------------------------------|
B|----13--11------11--x-------15--------13--x--11----|--------------------------15--------13--x--11--|
G|---11-----------10--x---------15------14--x--12----|----------------------------15------14--x--12--|
D|--13--------13--12--x---/15-----15----15--x--13----|--10--10-----5--------/15-----15----15--x--13--| x2
A|---------------------------------------------------|--10--10-----5---------------------------------|
E|---------------------------------------------------|--8---8------3---------------------------------|


Verse 2:

    C5 chord diagramC5C5         A5 chord diagramA5A5            F5 chord diagramF5F5          Eb chord diagramEbEb             C5 chord diagramC5C5         A5 chord diagramA5A5            F5 chord diagramF5F5         Eb chord diagramEbEb
e|---------------------------------------------------|-----------------------------------------------|
B|---------------------------------------------------|-----------------------------------------------|
G|---------------------------10-10-------8-----------|---------------------------10-10------8--------|
D|--10-10------8-------------10-10-------8-----------|--10-10------8-------------10-10------8--------|
A|--10-10------8-------------8--8--------6-----------|--10-10------8-------------8--8-------6--------|
E|--8--8-------6-------------------------------------|--8--8-------6---------------------------------|
    Sooner or  later,   the story  gets  told,       to tell it  myself would be unbearably bold

    C5 chord diagramC5C5         A5 chord diagramA5A5            F5 chord diagramF5F5          Eb chord diagramEbEb             C5 chord diagramC5C5         A5 chord diagramA5A5            F5 chord diagramF5F5         Eb chord diagramEbEb
e|---------------------------------------------------|-----------------------------------------------|
B|---------------------------------------------------|-----------------------------------------------|
G|---------------------------10-10-------8-----------|---------------------------10-10------8--------|
D|--10-10------8-------------10-10-------8-----------|--10-10------8-------------10-10------8--------|
A|--10-10------8-------------8--8--------6-----------|--10-10------8-------------8--8-------6--------|
E|--8--8-------6-------------------------------------|--8--8-------6---------------------------------|
 Presented with darkness, we turn to the light,      could've been smart, we're just unbearably bright

    Cdim chord diagramCdimCdim                  Bb chord diagramBbBb                            Cdim chord diagramCdimCdim                  Bb chord diagramBbBb
e|---------------------------------------------------|-----------------------------------------------|
B|--------10—h13-p10-------------------11------------|--------10—h13-p10------------------15---------|
G|-----11--------------------------10------10--x-----|-----11-----------------------------15--15--x--|
D|--13----------------13--12-------------------------|--13----------------13--12-----/15-------------| x2
A|---------------------------------------------------|-----------------------------------------------|
E|---------------------------------------------------|-----------------------------------------------|


Chorus 2:

    C5 chord diagramC5C5                                                  G5 chord diagramG5G5                         F5 chord diagramF5F5
e|---------------------------------------------------|-----------------------------------------------|
B|---------------------------------------------------|-----------------------------------------------|
G|--5--5---------5--5---------5--5---------5--5------|-----------------------------------------------|
D|--5--5---------5--5---------5--5---------5--5------|--5--5----------5--5---------3--3--------3--3--|
A|--3--3---------3--3---------3--3---------3--3------|--5--5----------5--5---------3--3--------3--3--|
E|---------------------------------------------------|--3--3----------3--3---------1--1--------1--1--|
        There's an avalanche  coming,                          don't  cover  your  eyes

    C5 chord diagramC5C5                                                  G5 chord diagramG5G5                         F5 chord diagramF5F5
e|---------------------------------------------------|-----------------------------------------------|
B|---------------------------------------------------|-----------------------------------------------|
G|--5--5---------5--5---------5--5---------5--5------|-----------------------------------------------|
D|--5--5---------5--5---------5--5---------5--5------|--5--5----------5--5---------3--3--------3--3--|
A|--3--3---------3--3---------3--3---------3--3------|--5--5----------5--5---------3--3--------3--3--|
E|---------------------------------------------------|--3--3----------3--3---------1--1--------1--1--|
         It's what you thought that you wanted,                  it's still a surprise

    C5 chord diagramC5C5                                                  G5 chord diagramG5G5                         F5 chord diagramF5F5
e|---------------------------------------------------|-----------------------------------------------|
B|---------------------------------------------------|-----------------------------------------------|
G|--5--5---------5--5---------5--5---------5--5------|-----------------------------------------------|
D|--5--5---------5--5---------5--5---------5--5------|--5--5----------5--5---------3--3--------3--3--|
A|--3--3---------3--3---------3--3---------3--3------|--5--5----------5--5---------3--3--------3--3--|
E|---------------------------------------------------|--3--3----------3--3---------1--1--------1--1--|
             It's hard on the body,                              it's hard on the mind

    D5 chord diagramD5D5                        G5 chord diagramG5G5                        C5 chord diagramC5C5                         F5 chord diagramF5F5
e|---------------------------------------------------|-----------------------------------------------|
B|---------------------------------------------------|-----------------------------------------------|
G|--7--7---------7--7--------------------------------|--5--5----------5--5---------------------------|
D|--7--7---------7--7---------5--5---------5--5------|--5--5----------5--5---------3--3--------3--3--|
A|--5--5---------5--5---------5--5---------5--5------|--3--3----------3--3---------3--3--------3--3--|
E|----------------------------3--3---------3--3------|-----------------------------1--1--------1--1--|
   To learn what  kept  us  together  darling,                is what kept   us   alive

    Cdim chord diagramCdimCdim          Bb chord diagramBbBb                    F chord diagramFF      Eb chord diagramEbEb       C5 chord diagramC5C5         G5 chord diagramG5G5        Bb chord diagramBbBb           F chord diagramFF      Eb chord diagramEbEb
e|---------------------------------------------------|-----------------------------------------------|
B|----13--11------11--x-------15--------13--x--11----|--------------------------15--------13--x--11--|
G|---11-----------10--x---------15------14--x--12----|----------------------------15------14--x--12--|
D|--13--------13--12--x---/15-----15----15--x--13----|--10--10-----5--------/15-----15----15--x--13--| x2
A|---------------------------------------------------|--10--10-----5---------------------------------|
E|---------------------------------------------------|--8---8------3---------------------------------|


Bridge:

    F chord diagramFF/A chord diagramAA        Bb chord diagramBbBb            F5 chord diagramF5F5          Eb chord diagramEbEb             C5 chord diagramC5C5         G5 chord diagramG5G5            F5 chord diagramF5F5         Eb chord diagramEbEb
e|---------------------------------------------------|-----------------------------------------------|
B|---------------------------------------------------|-----------------------------------------------|
G|---------------------------10-10-------8-----------|---------------------------10-10------8--------|
D|--7—-7-------8-------------10-10-------8-----------|--10-10------5-------------10-10------8--------|
A|--8--8-------8-------------8--8--------6-----------|--10-10------5-------------8--8-------6--------|
E|--5--8-------6-------------------------------------|--8--8-------3---------------------------------|

    F chord diagramFF/A chord diagramAA        Bb chord diagramBbBb            F5 chord diagramF5F5          Eb chord diagramEbEb             C5 chord diagramC5C5         G5 chord diagramG5G5            F5 chord diagramF5F5         Eb chord diagramEbEb
e|---------------------------------------------------|-----------------------------------------------|
B|---------------------------------------------------|-----------------------------------------------|
G|---------------------------10-10-------8-----------|---------------------------10-10------8--------|
D|--7—-7-------8-------------10-10-------8-----------|--10-10------5-------------10-10------8--------| x3
A|--8--8-------8-------------8--8--------6-----------|--10-10------5-------------8--8-------6--------|
E|--5--8-------6-------------------------------------|--8--8-------3---------------------------------|
    Call it a  day,          call it  a  night,       careless and cold and just unbearably white (you-ooh)


Verse 3:

    F chord diagramFF/A chord diagramAA        Bb chord diagramBbBb            F5 chord diagramF5F5          Eb chord diagramEbEb             C5 chord diagramC5C5         G5 chord diagramG5G5            F5 chord diagramF5F5         Eb chord diagramEbEb
e|---------------------------------------------------|-----------------------------------------------|
B|---------------------------------------------------|-----------------------------------------------|
G|---------------------------10-10-------8-----------|---------------------------10-10------8--------|
D|--7—-7-------8-------------10-10-------8-----------|--10-10------5-------------10-10------8--------|
A|--8--8-------8-------------8--8--------6-----------|--10-10------5-------------8--8-------6--------|
E|--5--8-------6-------------------------------------|--8--8-------3---------------------------------|
    Baby  I    love you, but that's not enough,     and pulling away has been unbearably buff (you-ooh)

    F chord diagramFF/A chord diagramAA        Bb chord diagramBbBb            F5 chord diagramF5F5          Eb chord diagramEbEb             C5 chord diagramC5C5         G5 chord diagramG5G5            F5 chord diagramF5F5         Eb chord diagramEbEb
e|---------------------------------------------------|-----------------------------------------------|
B|---------------------------------------------------|-----------------------------------------------|
G|---------------------------10-10-------8-----------|---------------------------10-10------8--------|
D|--7—-7-------8-------------10-10-------8-----------|--10-10------5-------------10-10------8--------|
A|--8--8-------8-------------8--8--------6-----------|--10-10------5-------------8--8-------6--------|
E|--5--8-------6-------------------------------------|--8--8-------3---------------------------------|
 I ran up the  mountain, out of   your   sight, the snow on the peak was just unbearably white (you-ooh)


Outro:
    F chord diagramFF/A chord diagramAA        Bb chord diagramBbBb            F5 chord diagramF5F5          Eb chord diagramEbEb             C5 chord diagramC5C5         G5 chord diagramG5G5            F5 chord diagramF5F5         Eb chord diagramEbEb
e|---------------------------------------------------|-----------------------------------------------|
B|---------------------------------------------------|-----------------------------------------------|
G|---------------------------10-10-------8-----------|---------------------------10-10------8--------|
D|--7—-7-------8-------------10-10-------8-----------|--10-10------5-------------10-10------8--------|
A|--8--8-------8-------------8--8--------6-----------|--10-10------5-------------8--8-------6--------|
E|--5--8-------6-------------------------------------|--8--8-------3---------------------------------|
    Call it a  day,          call it  a  night,       careless and cold and just unbearably white (you-ooh)

(Fade out)

Other versions of Unbearably White

Unbearably whiteChords

Almost there ...

Sign in to get your own page with links to favourite songs and more. You are just one click away...

Login with Facebook Login with Google