Log in

One click and you are in

Login with Facebook Login with Google

Why sign up and log in

Guitar Tabs Explorer
Vampire Weekend bass tabs for Sunflower

Bass tabs

Tuning: Standard (E A D G)

Difficulty: Intermediate


Intro & Solo:

G|-------------------5-6-8--|--6-5-6-5-6-5-----------------------|
D|-------5-6-8---6-8--------|--------------8-6-5-8-6-5---6-5-----|
A|---6-8--------------------|--------------------------8-----8---|
E|--------------------------|------------------------------------|

G|-------------------5-6-8--|-----------------6-8-11-10----8---|
D|-------5-6-8---6-8--------|----------6-8-10-----------11-----|
A|---6-8--------------------|----6-8-9-------------------------|
E|--------------------------|--9-------------------------------|

G|---20-18-17---------18-17-----------|-----------------------------------------|
D|------------20-18---------20-18-16--|--20-18-16---18-16-15---16-15------------|
A|------------------------------------|------------------------------18-16-18---|
E|------------------------------------|-----------------------------------------|

G|--------------------5-6-8--|--6-5-6-5-6-5-6-5-6-5-6-5-6-5-6-5---|
D|-------5-6-8----6-8--------|------------------------------------|
A|---6-8---------------------|------------------------------------|
E|---------------------------|------------------------------------|


Verse:

G|-----------------|--------------------|
D|-----------7-----|-------------3------|
A|---6--6-6-----6--|--6--4--4-4-----4---|
E|-----------------|--------------------|

G|-------------------|-------------------------------|
D|-------------7-----|-------------3-----------------|
A|-----6--6-6-----6--|--6--4--4-4-----4---4-3--------|
E|-------------------|------------------------6-4----|


Chorus:

G|---------------13-12--------|------------10--|-------------12-----|--------10-----|
D|---------10-13-------13-10--|-------8-11-----|--8-----8-13----13--|--11-11----8---|
A|---11-----------------------|---9-9----------|----11--------------|---------------|
E|----------------------------|----------------|--------------------|---------------|


Solo:

G|-------------------5-6-8--|--6-5-6-5-6-5-----------------------|
D|-------5-6-8---6-8--------|--------------8-6-5-8-6-5---6-5-----|
A|---6-8--------------------|--------------------------8-----8---|
E|--------------------------|------------------------------------|

G|-------------------5-6-8--|-----------------6-8-11-10----8---|
D|-------5-6-8---6-8--------|----------6-8-10-----------11-----|
A|---6-8--------------------|----6-8-9-------------------------|
E|--------------------------|--9-------------------------------|

G|---20-18-17---------18-17-----------|-----------------------------------------|
D|------------20-18---------20-18-16--|--20-18-16---18-16-15---16-15------------|
A|------------------------------------|------------------------------18-16-18---|
E|------------------------------------|-----------------------------------------|

G|--------------------5-6-8--|--6-5-6-5-6-5-6-5-6-5-6-5-6-5-6-5---|
D|-------5-6-8----6-8--------|------------------------------------|
A|---6-8---------------------|------------------------------------|
E|---------------------------|------------------------------------|


Verse:

G|-----------------|--------------------|
D|-----------7-----|-------------3------|
A|---6--6-6-----6--|--6--4--4-4-----4---|
E|-----------------|--------------------|


G|-------------------|-------------------------------|
D|-------------7-----|-------------3-----------------|
A|-----6--6-6-----6--|--6--4--4-4-----4---4-3--------|
E|-------------------|------------------------6-4----|


Chorus:

G|---------------13-12--------|------------10--|-------------12-----|----------|
D|---------10-13-------13-10--|-------8-11-----|--8-----8-13----13--|--11-11---|
A|---11-----------------------|---9-9----------|----11--------------|----------|
E|----------------------------|----------------|--------------------|----------|


Solo but slowed down:

G|-------------------5-6-8--|--6-5-6-5-6-5-----------------------|
D|-------5-6-8---6-8--------|--------------8-6-5-8-6-5---6-5-----|
A|---6-8--------------------|--------------------------8-----8---|
E|--------------------------|------------------------------------|

G|-------------------5-6-8--|-----------------6-8-11-10----8---|
D|-------5-6-8---6-8--------|----------6-8-10-----------11-----|
A|---6-8--------------------|----6-8-9-------------------------|
E|--------------------------|--9-------------------------------|

G|---20-18-17---------18-17-----------|-----------------------------------------|
D|------------20-18---------20-18-16--|--20-18-16---18-16-15---16-15------------|
A|------------------------------------|------------------------------18-16-18---|
E|------------------------------------|-----------------------------------------|

G|--------------------5-6-8--|--6-5-6-5-6-5-6-5-6-5-6-5-6-5-6-5---|
D|-------5-6-8----6-8--------|------------------------------------|
A|---6-8---------------------|------------------------------------|
E|---------------------------|------------------------------------|

Almost there ...

Sign in to get your own page with links to favourite songs and more. You are just one click away...

Login with Facebook Login with Google