Log in

One click and you are in

Login with Facebook Login with Google

Why sign up and log in

Guitar Tabs Explorer
Vampire Weekend tabs for Cousins

Intro

Vampire Weekend - Cousins (Intro and Solo - Tab)

Great new song by Vampire Weekend, available as from 11 January 2010 everywhere. Until
enjoy yourself, by playing yourself ;)
Intro:
e------------0------------0-0-0-0-0------------0---------------------------|
B------------5------------5-5-3-3-3------------5---------------------------|
G----1---3---3-----1---3--3-3-5-5-5----1---3---3-----1---3--4~-------------|
D---2---4----4----2---4---4-4-4-4-4---2---4----4----2---4---4~-------------|
A--------------------------------------------------------------------------|
E--------------------------------------------------------------------------|

e------------0------------0-------------0----------------------------------|
B------------5------------5-------------5----------------------------------|
G----1---3---3-----1---3--3-----1---3---3-----1---3--4~--------------------|
D---2---4----4----2---4---4----2---4----4----2---4---4~--------------------|
A--------------------------------------------------------------------------|
E--------------------------------------------------------------------------|


Solo:
e-12-11-9-7-6-7-6-4-2-4-2-0-------------------------------------------------|
B---------------------------4-2-0-------------------------------------------|
G---------------------------------------------------------------------------|
D---------------------------------------------------------------------------|
A---------------------------------------------------------------------------|
E---------------------------------------------------------------------------|

Other versions of Cousins

Cousins (Ver. 2) - introTabs

Almost there ...

Sign in to get your own page with links to favourite songs and more. You are just one click away...

Login with Facebook Login with Google