Log in

One click and you are in

Login with Facebook Login with Google

Why sign up and log in

Guitar Tabs Explorer
Vampire Weekend bass tabs for Cape cod kwassa kwassa

Cape Cod Kwassa Kwassa bass tab by Vampire Weekend

Vampire Weekend bass tabs for Cape cod kwassa kwassa

Bass tabs with lyrics

Tuning: Standard (E A D G)


Intro:
 (0:04)    (0:09)
G|---------------------|
D|---------------------|
A|-5-5-5--------5-5----|
E|---------------------|
Verse 1 (0:10)
G|---------------------------------------------|
D|------------4-7-4----------------------------|
A|-5-5----4h5-------5----2---4---5----5-5-5----| x9
E|-------------------------3---5---------------|

G|------------------------------------|
D|------------4-7-4-------------------|
A|-5-5----4h5-------5----2---4---5----|
E|-------------------------3---5------|


Chorus 1 (0:55)
G|----------------------------|
D|----------------------------|
A|-2-2----4-4---5----5-5-5----| x8
E|-----3------5---------------|

Post-Chorus 1 (1:13)
G|-------------------------------------------4-----4--------------------------|
D|-------------------4----------7-4---7-4------5-----5------------------------|
A|----------5~---4h5---5-4-5--------5-----5------7-----7--5-5--------5-5-5----|
E|0~---5~---------------------------------------------------------------------|

G|---------------------------------------|
D|------------4-7-4----------------------|
A|-5-5----4h5-------5----2---4---5/17----|
E|-------------------------3---5---------|

Verse 2 (1:30)
G|---------------------------------------------|
D|------------4-7-4----------------------------|
A|-5-5----4h5-------5----2---4---5----5-5-5----| x4
E|-------------------------3---5---------------|

G|------------------------------------|
D|------------4-7-4-------------------|
A|-5-5----4h5-------5----2---4---5----|
E|-------------------------3---5------|

G|--------------|
D|--------------|
A|-5----5---5---|
E|--------------|


Chorus 2 (1:57)
G|----------------------------|
D|----------------------------|
A|-2-2----4-4---5----5-5-5----| x8
E|-----3------5---------------|

Post-Chorus 2 (2:15)
G|-------------------------------------------4-----4--------------------------|
D|-------------------4----------7-4---7-4------5-----5------------------------|
A|----------5~---4h5---5-4-5--------5-----5------7-----7--5-5--------5-5-5----|
E|0~---5~---------------------------------------------------------------------|


Bridge (2:27)
G|---------------------------------------------|
D|------------4-7-4----------------------------|
A|-5~----4h5--------5----2---4---5----5-5-5----| x7
E|-------------------------3---5---------------|

G|------------------------------------|
D|------------4-7-4-------------------|
A|-5~----4h5--------5----2---4---5----|
E|-------------------------3---5------|


Chorus 3 / Outro (3:03)
G|----------------------------|
D|----------------------------|
A|-2-2----4-4---5----5-5-5----| x11
E|-----3------5---------------|

G|-------------------|
D|-------------------|
A|-2-2----4-4---5----|
E|-----3------5------|


| / slide up
| \ slide down
| h hammer-on
| p pull-off
| ~ vibrato
| + harmonic
| x Mute note




LYRICS:


Verse 1:

As a young girl

Louis Vuitton

With your mother

On a sandy lawn

As a sophomore

With reggaeton

And the linens

You're sittin' on


Chorus:

Is your bed made? Is your sweater on?

Do you want to fuck like you know I do?

Like you know I do, ooh, ooh, ooh, ooh, ooh, ooh

Ooh, ooh, ooh, ooh, ooh, ooh, ooh


Post-Chorus:

But this feels so unnatural, Peter Gabriel too

But it feels so unnatural, Peter Gabriel


Verse 2:

Can you stay up

To see the dawn?

In the colors

Of Benetton


Chorus:

Is your bed made? Is your sweater on?

Do you want to, like you know I do?

Like you know I do, ooh, ooh, ooh, ooh, ooh, ooh

Ooh, ooh, ooh, ooh, ooh, ooh, ooh


Post-Chorus:

Feels so unnatural, Peter Gabriel too

But this feels so unnatural, Peter Gabriel


Bridge:

Ooh, ooh

Ooh, ooh


Chorus:

Is your bed made? Is your sweater on?

Do you wanna, like you know I do?

Like you know I do, ooh, ooh, ooh, ooh, ooh, ooh

Ooh, ooh, ooh, ooh, ooh, ooh, ooh

Almost there ...

Sign in to get your own page with links to favourite songs and more. You are just one click away...

Login with Facebook Login with Google