Log in

One click and you are in

Login with Facebook Login with Google

Why sign up and log in

Guitar Tabs Explorer
The Valley bass tabs for Nevermind

Bass tabs

Tuning: Standard (E A D G)


Tuning: Standard

Key: A Major
Verse 1: (0:09-0:38)

G|----------------|----------------|----------------|----------------|
D|----------7-----|----------------|----------11----|----------------|
A|--------------7-|--7---7-7-----7-|9-----9-9-----5-|--5---5-5-----5-|
E|------5-5-------|----------------|----------------|----------------|
 1 & 2 & 3 & 4 & 1 & 2 & 3 & 4 & 1 & 2 & 3 & 4 & 1 & 2 & 3 & 4 &

G|----------------|----------------|----------------|----------------|
D|----------7-----|----------------|----------11----|----------------|
A|--------------7-|--7---7-7-----7-|9-----9-9-----5-|--5-------5-----|
E|5-----5-5-------|----------------|----------------|----------------|
 1 & 2 & 3 & 4 & 1 & 2 & 3 & 4 & 1 & 2 & 3 & 4 & 1 & 2 & 3 & 4 &

G|----------------|----------------|----------------|----------------|
D|----------7-----|----------------|----------11----|----------------|
A|--------------7-|--7---7-7-----7-|9-----9-9-----5-|--5---5-5-----5-|
E|5-----5-5-------|----------------|----------------|----------------|
 1 & 2 & 3 & 4 & 1 & 2 & 3 & 4 & 1 & 2 & 3 & 4 & 1 & 2 & 3 & 4 &

G|----------------|----------------|----------------|----------------|
D|----------7-----|----------------|----------11----|----------------|
A|--------------7-|--7---7-7-----7-|9-----9-9-----5-|--5-------5-----|
E|5-----5-5-------|----------------|----------------|----------------|
 1 & 2 & 3 & 4 & 1 & 2 & 3 & 4 & 1 & 2 & 3 & 4 & 1 & 2 & 3 & 4 &


Pre-Chorus: (0:38-0:45)

G|----------------|----------------|----------------|----------------|
D|----------------|----------------|----------------|----------------|
A|----NO--BASS----|----NO--BASS----|----NO--BASS----|----NO--BASS----|
E|----------------|----------------|----------------|----------------|
 1 & 2 & 3 & 4 & 1 & 2 & 3 & 4 & 1 & 2 & 3 & 4 & 1 & 2 & 3 & 4 &


Chorus: (0:45-1:11) SYNTH BASS

G|----------------|------------------|---------------------|----------------|
D|----------------|------------------|---------------------|----------------|
A|5-5-5-5-5-9-9-7-|7-7-7-7-7-11-11-12|12-12-12-12-12-4-4-5-|5-5-5-5-5-5-5-5-|
E|----------------|------------------|---------------------|----------------|
 1 & 2 & 3 & 4 & 1 & 2 & 3 & 4 & 1 & 2 & 3 & 4 & 1 & 2 & 3 & 4 &

G|----------------|------------------|---------------------|----------------|
D|----------------|------------------|---------------------|----------------|
A|5-5-5-5-5-9-9-7-|7-7-7-7-7-11-11-12|12-12-12-12-12-4-4-5-|5-5-5-5-5-5-5-5-|
E|----------------|------------------|---------------------|----------------|
 1 & 2 & 3 & 4 & 1 & 2 & 3 & 4 & 1 & 2 & 3 & 4 & 1 & 2 & 3 & 4 &

G|----------------|------------------|---------------------|----------------|
D|----------------|------------------|---------------------|----------------|
A|5-5-5-5-5-9-9-7-|7-7-7-7-7-11-11-12|12-12-12-12-12-4-4-5-|5-5-5-5-5-5-5-5-|
E|----------------|------------------|---------------------|----------------|
 1 & 2 & 3 & 4 & 1 & 2 & 3 & 4 & 1 & 2 & 3 & 4 & 1 & 2 & 3 & 4 &

G|----------------|----------------|
D|----------------|----------------|
A|----NO--BASS----|----NO--BASS----|
E|----------------|----------------|
 1 & 2 & 3 & 4 & 1 & 2 & 3 & 4 &


Verse 2: (1:11-1:25)

G|----------------|----------------|----------------|----------------|
D|----------7-----|----------------|----------11----|----------------|
A|--------------7-|--7---7-7-----7-|9-----9-9-----5-|--5---5-5-----5-|
E|5-----5-5-------|----------------|----------------|----------------|
 1 & 2 & 3 & 4 & 1 & 2 & 3 & 4 & 1 & 2 & 3 & 4 & 1 & 2 & 3 & 4 &

G|----------------|----------------|----------------|----------------|
D|----------7-----|----------------|----------------|----------------|
A|--------------2-|--4---5---5-7-9-|------7---4---5-|--5-------5-----|
E|5-----5-5-------|----------------|----------------|----------------|
 1 & 2 & 3 & 4 & 1 & 2 & 3 & 4 & 1 & 2 & 3 & 4 & 1 & 2 & 3 & 4 &


Pre-Chorus: (1:25-1:33)

G|----------------|----------------|----------------|----------------|
D|----------------|----------------|----------------|----------------|
A|----NO--BASS----|----NO--BASS----|----NO--BASS----|----NO--BASS----|
E|----------------|----------------|----------------|----------------|
 1 & 2 & 3 & 4 & 1 & 2 & 3 & 4 & 1 & 2 & 3 & 4 & 1 & 2 & 3 & 4 &


Chorus: (1:33-1:58) SYNTH BASS

G|----------------|------------------|---------------------|----------------|
D|----------------|------------------|---------------------|----------------|
A|5-5-5-5-5-9-9-7-|7-7-7-7-7-11-11-12|12-12-12-12-12-4-4-5-|5-5-5-5-5-5-5-5-|
E|----------------|------------------|---------------------|----------------|
 1 & 2 & 3 & 4 & 1 & 2 & 3 & 4 & 1 & 2 & 3 & 4 & 1 & 2 & 3 & 4 &

G|----------------|------------------|---------------------|----------------|
D|----------------|------------------|---------------------|----------------|
A|5-5-5-5-5-9-9-7-|7-7-7-7-7-11-11-12|12-12-12-12-12-4-4-5-|5-5-5-5-5-5-5-5-|
E|----------------|------------------|---------------------|----------------|
 1 & 2 & 3 & 4 & 1 & 2 & 3 & 4 & 1 & 2 & 3 & 4 & 1 & 2 & 3 & 4 &

G|----------------|------------------|---------------------|----------------|
D|----------------|------------------|---------------------|----------------|
A|5-5-5-5-5-9-9-7-|7-7-7-7-7-11-11-12|12-12-12-12-12-4-4-5-|5-5-5-5-5-5-5-5-|
E|----------------|------------------|---------------------|----------------|
 1 & 2 & 3 & 4 & 1 & 2 & 3 & 4 & 1 & 2 & 3 & 4 & 1 & 2 & 3 & 4 &

G|----------------|----------------|
D|----------------|----------------|
A|----NO--BASS----|----NO--BASS----|
E|----------------|----------------|
 1 & 2 & 3 & 4 & 1 & 2 & 3 & 4 &


Bridge: (1:58-2:28)

G|----------------|----------------|----------------|----------------|
D|----------------|----------------|----------------|----------------|
A|7-------------4-|------5---------|2-------------4-|------5---------|
E|----------------|----------------|----------------|----------------|
 1 & 2 & 3 & 4 & 1 & 2 & 3 & 4 & 1 & 2 & 3 & 4 & 1 & 2 & 3 & 4 &

G|----------------|----------------|----------------|----------------|
D|----------------|----------------|----------------|----------------|
A|7-------------9-|------4---------|7-------------5-|----------------|
E|----------------|----------------|----------------|----------------|
 1 & 2 & 3 & 4 & 1 & 2 & 3 & 4 & 1 & 2 & 3 & 4 & 1 & 2 & 3 & 4 &

G|----------------|----------------|----------------|----------------|
D|----------------|----------------|----------------|----------------|
A|2---------------|4---------------|5---------------|2---------------|
E|----------------|----------------|----------------|----------------|
 1 & 2 & 3 & 4 & 1 & 2 & 3 & 4 & 1 & 2 & 3 & 4 & 1 & 2 & 3 & 4 &

G|----------------|----------------|----------------|----------------|
D|----------------|----------------|----------------|----------------|
A|2---------------|4---------------|2---------------|----------------|
E|----------------|----------------|----------------|----------------|
 1 & 2 & 3 & 4 & 1 & 2 & 3 & 4 & 1 & 2 & 3 & 4 & 1 & 2 & 3 & 4 &


Chorus: (2:28-2:49) SYNTH BASS

G|----------------|------------------|---------------------|----------------|
D|----------------|------------------|---------------------|----------------|
A|----------------|7-7-7-7-7-11-11-12|12-12-12-12-12-4-4-5-|5-5-5-5-5-5-5-5-|
E|----------------|------------------|---------------------|----------------|
 1 & 2 & 3 & 4 & 1 & 2 & 3 & 4 & 1 & 2 & 3 & 4 & 1 & 2 & 3 & 4 &

G|----------------|------------------|---------------------|----------------|
D|----------------|------------------|---------------------|----------------|
A|5-5-5-5-5-9-9-7-|7-7-7-7-7-11-11-12|12-12-12-12-12-4-4-5-|5-5-5-5-5-5-5-5-|
E|----------------|------------------|---------------------|----------------|
 1 & 2 & 3 & 4 & 1 & 2 & 3 & 4 & 1 & 2 & 3 & 4 & 1 & 2 & 3 & 4 &

G|----------------|------------------|---------------------|----------------|
D|----------------|------------------|---------------------|----------------|
A|5-5-5-5-5-9-9-7-|7-7-7-7-7-11-11-12|12-12-12-12-12-4-4-5-|5-5-5-5-5-5-5-5-|
E|----------------|------------------|---------------------|----------------|
 1 & 2 & 3 & 4 & 1 & 2 & 3 & 4 & 1 & 2 & 3 & 4 & 1 & 2 & 3 & 4 &

Almost there ...

Sign in to get your own page with links to favourite songs and more. You are just one click away...

Login with Facebook Login with Google