Log in

One click and you are in

Login with Facebook Login with Google

Why sign up and log in

Guitar Tabs Explorer
Richie Valens bass tabs for Tell laura i love

Bass tabs

Tell Laura I Love Her.btab
Richie Valens
TablEdited by Poppis

Tuning : E A D G 	Time Signature: 4/4

 |  tempo 116  |    |    |    |    |    |
|3-------------------------------|3-------------------------------|
|------------------------3-------|------------------------3-------|
|--------------------------------|--------------------------------|
|--------------------------------|--------------------------------|

 Laura and Tommy were lovers...  |    |    |    |
|3-----------------------3-------|----------------3---------------|
|----------------3---------------|1-----------------------1-------|
|--------------------------------|--------------------------------|
|--------------------------------|--------------------------------|

 |    |    |    |    |    |    |    |
|3-----------------------3-------|----------------3---------------|
|----------------3---------------|1-----------------------1-------|
|--------------------------------|--------------------------------|
|--------------------------------|--------------------------------|

 |    |    |    |    |    |    |    |
|----------------2---------------|----------------3---------------|
|0-----------------------0-------|1-----------------------1-------|
|--------------------------------|--------------------------------|
|--------------------------------|--------------------------------|

 |    |    |    |    |    |    |    |
|----------------5---------------|----------------5-------0---2---|
|3-------------------------------|3-------------------3-----------|
|------------------------3-------|--------------------------------|
|--------------------------------|--------------------------------|

 He saw a|sign for a stock car race    |    |    |
|3-----------------------3-------|----------------3---------------|
|----------------3---------------|1-----------------------1-------|
|--------------------------------|--------------------------------|
|--------------------------------|--------------------------------|

 |    |    |    |    |    |    |    |
|3-----------------------3-------|--------------------------------|
|----------------3---------------|1-----------------------1-------|
|--------------------------------|----------------1---------------|
|--------------------------------|--------------------------------|

 |    |    |    |    |    |    |    |
|----------------2---------------|----------------3---------------|
|0-----------------------0-------|1-----------------------1-------|
|--------------------------------|--------------------------------|
|--------------------------------|--------------------------------|

 |    |    |    |    |    |    |    |
|----------------5---------------|----------------5-------0---2---|
|3-------------------------------|3-------------------3-----------|
|------------------------3-------|--------------------------------|
|--------------------------------|--------------------------------|

 |    Tell Laura I love her  |    |    |    |
|3-------------------------------|3-----------------------0---2---|
|----------------3-------3-------|----------------3---3-----------|
|--------------------------------|--------------------------------|
|--------------------------------|--------------------------------|

 |    |    |    |    |    |    |    |
|3-------------------------------|5---------------0---0---2---4---|
|----------------3-------3-------|--------------------------------|
|--------------------------------|--------------------------------|
|--------------------------------|--------------------------------|

 |    |    |    |    |    |    |    |
|5---------------0-------5-------|3-----------------------3-------|
|--------------------------------|----------------3---------------|
|--------------------------------|--------------------------------|
|--------------------------------|--------------------------------|

 |    |    |    |    |    |    |    |
|--------------------------------|--------------------------------|
|1-------------------------------|1---------------1-------3-------|
|----------------1-------1-------|--------------------------------|
|--------------------------------|--------------------------------|

 |    |    |    |    |    |    |    |
|3-------------------------------|--------------------------------|
|----------------3-------3-------|----------------3-------3-------|
|--------------------------------|1-------------------------------|
|--------------------------------|--------------------------------|

 He drove|his car|to the racing grounds  |    |    |
|3-----------------------3-------|--------------------------------|
|----------------3---------------|1-----------------------1-------|
|--------------------------------|----------------1---------------|
|--------------------------------|--------------------------------|

 |    |    |    |    and so on...  |    |
|3-----------------------3-------|--------------------------------|
|----------------3---------------|--------------------------------|
|--------------------------------|--------------------------------|
|--------------------------------|--------------------------------|

http://www.geocities.com/jani_bjorklund/janis.html

Almost there ...

Sign in to get your own page with links to favourite songs and more. You are just one click away...

Login with Facebook Login with Google