Log in

One click and you are in

Login with Facebook Login with Google

Why sign up and log in

Guitar Tabs Explorer
Vader guitar tabs for Dark heart

Guitar tabs

Tuning C#-F#-B-E-G#-C#
Palm Mute: .    Slide Up: /
Slide Down: \   Hold Note/Chord: ...
Harmonic: ^
Intro: (Riff A chord diagramA augmentedA)
|---------------------------|
|---------------------------|
|---------------------------|
|---------------------------|
|---------------------------|
|-5555551111110000007777653-|
   .....................


Intro: (Riff A chord diagramBB)
|--------------------------|
|--------------------------|
|--------------------------|
|--------------------------|
|--------------------------|
|-555555111111000000000000-|
   .......................


Intro: (Riff A chord diagramC majorC)
|------------------------------------------|
|------------------------------------------|
|------------------------------------------|
|-4...---------------4...-5...-7-5-8-9-5-4-|
|-4...---------------4...-5...-7-5-8-9-5-4-|
|-2...--333333555566-2...-3...-5-3-6-7-3-2-|
        ............

Intro Order: Riff A chord diagramA augmentedA x3 -> Riff A chord diagramBB -> RiFF A chord diagramA augmentedA x3 -> Riff A chord diagramBB -> Riff A chord diagramC majorC


Riff 1
|-------------------------------------------|
|-------------------------------------------|
|---------------------------------------8\7-|
|---------------------------------------6\5-|
|---------8-----------9-----------8-9-8-----|
|-0-1-2-4-6-0-1-2-1-0-7-0-1-2-1-0-6-7-6-----|
  . . . .   . . . . .   . . . . .


Riff 2
|-------------------------------------------|
|-------------------------------------------|
|-------------------------------------------|
|-------------------------------------------|
|---------8-----------9-----------8-10-9/10-|
|-0-1-2-4-6-0-1-2-1-0-7-0-1-2-1-0-6-8--7/8--|
  . . . .   . . . . .   . . . . .





Riff 3
|---------------------------------------------|
|---------------------------------------------|
|---------------------------------------------|
|---------------------------------------------|
|---------8-----------9-----------8-10-9-8...-|
|-0-1-2-4-6-0-1-2-1-0-7-0-1-2-1-0-6-8--7-6...-|
  . . . .   . . . . .   . . . . .


Riff 4
|----------------------------------------------------|
|----------------------------------------------------|
|----------------------------------------------------|
|----------------------------------------------------|
|---------8-----------9-----------8-----------9-10-9-|
|-0-1-2-4-6-0-1-2-1-0-7-0-1-2-1-0-6-0-1-2-1-0-7-8--7-|
  . . . .   . . . . .   . . . . .   . . . . .


Riff 5 (later)
|--------------------------------------------|
|--------------------------------------------|
|--------------------------------------------|
|--------------------------------------------|
|---------8-----------9-----------8-7-10-9-8-|
|-0-1-2-4-6-0-1-2-1-0-7-0-1-2-1-0-6-5-8--7-6-|
  . . . .   . . . . .   . . . . .


Riff 6 (Ending)
|---------------------------------------------------------|
|---------------------------------------------------------|
|---------------------------------------------------------|
|---------------------------------------------------------|
|---------8-----------9-----------8-----------8-10-9-8...-|
|-0-1-2-4-6-0-1-2-1-0-7-0-1-2-1-0-6-0-1-2-1-0-6-8--7-6...-|
  . . . .   . . . . .   . . . . .   . . . . .


Riff Order: Riff 1 -> Riff 2 -> Riff 1 -> Riff 3 -> Riff 1 -> Riff 2 -> Riff 1 ->    Riff 4


Bridge
|------------------------------------------------------------------|
|------------------------------------------------------------------|
|------------------------------------------------------------------|
|------------------------------------------------------------------|
|-------------------------------------------------1111111111111111-|
|-333333333333333333333333555555552222222222222222-----------------|


Bridge (cont.)
|----------------------------------------|
|----------------------------------------|
|----------------------------------------|
|----------------------------------------|
|--------------7...--------------8...5-4-|
|-333333333333-5...-222222222222-6...3-2-|
  ............      ..............


Riff Order (After Bridge): Riff 1 -> Riff 2 -> Riff 1 -> Riff 5






Bridge 2 Part 1:
|-----------------------------------------------------------------------|
|-----------------------------------------------------------------------|
|-----------------------------------------------------------------------|
|-----------------------------------------------------------------------|
|---------------------0^-2^-3^-0^-1^-2^---------------------3-3-3-3-3-3-|
|-2222222222222222222-------------------0000000000000000000-3-3-3-3-3-3-|
  ...................                   ................... . . . . . .


Bridge 2 part 2:
|----------------------------------------|
|----------------------------------------|
|----------------------------------------|
|----------------------------------------|
|----------------------0^-2^-3^-0^-1^-2^-|
|--2222222222222222222-------------------|
   ...................


Bridge 2 Part 2 (cont.):
|--------------------------------------------------|
|--------------------------------------------------|
|--------------------------------------------------|
|--------------------------------------------------|
|--------------------------2-2-2-2-8-9-5-4-8-9-5-4-|
|-333333333333443322222222-2-2-2-2-6-7-3-2-6-7-3-2-|
  ........................ . . . . . . . . . . . .


Solo (Rhythm)
|------------------------------------|
|------------------------------------|
|------------------------------------|
|------------------------------------|
|-7----------------7-9-10-10-9-10-10-|
|-5-55555555555555-5-7-8--8--7-8--8--|
    ..............


Solo (Rhythm: Ending)
|---------------------------------|
|---------------------------------|
|---------------------------------|
|---------------------------------|
|-7----------------7-9-10-10-9-10-|
|-5-55555555555555-5-7-8--8--7-8--|
    ..............


Solo Order: Rhythm x7 -> Rhythm: Ending

(Back to Riff 1-6 Section)


Ending: Riff 1 -> Riff 2 -> Riff 1 -> Riff 3 -> Riff 1 -> Riff 6

↓ Add and view comments below ↓

What do you think about this song and these tabs?

Add your comments, questions, rant or a thumbs up below.

Almost there ...

Sign in to get your own page with links to favourite songs and more. You are just one click away...

Login with Facebook Login with Google