Log in

One click and you are in

Login with Facebook Login with Google

Why sign up and log in

Guitar Tabs Explorer
Vacations bass tabs for Young

Bass tabs

Tuning: Standard (E A D G)


Intro:

G|--------------|
D|--------------|
A|--------------| x4
E|3-3--3-5-5--7-|

G|-----------------------------------------------------------------|
D|-----------------------------------------------------------------|
A|5-5-5-5-5-5-5-7-----------------5-5-5-5-5-5-5-5-5----------------|
E|----------------5-5-5-5-5-5-5-7----------------------------------|

Verse 1:

G|---------------------------------------------------------------|
D|---------------------------------------------------------------|
A|--------------------------------5-5-5-5-5-9-10--5-5-5-5-5-9-10-| x2
E|5-5-5-3-7-5-3-0-5-5-5-3-7-5-3-0--------------------------------|


Prechorus:

G|--------------------------------|
D|--------------------------------|
A|2-2-2-2-2-2-2-2-0-0-0-0-0-0-0-0-| x2
E|--------------------------------|


Chorus:

G|------------------------------------------------------------------|
D|------------------------------------------------------------------|
A|----------------2-2-2-2-5-5-5-7-----------------2-2-2-2-----------| x2
E|3-3-3-3-5-5-5-5----------------3-3-3-3-5-5-5-5---------5-5-5-5----|

^^^ A5-A7 jumps quickly

Intro (2):

G|--------------|
D|--------------|
A|--------------| x4
E|3-3--3-5-5--7-|

G|-----------------------------------------------------------------|
D|-----------------------------------------------------------------|
A|5-5-5-5-5-5-5-7-----------------5-5-5-5-5-5-5-5-5----------------|
E|----------------5-5-5-5-5-5-5-7----------------------------------|


Verse 2:

G|---------------------------------------------------------------|
D|---------------------------------------------------------------|
A|--------------------------------5-5-5-5-5-9-10--5-5-5-5-5-9-10-| x2
E|5-5-5-3-7-5-3-0-5-5-5-3-7-5-3-0--------------------------------|


Prechorus:

G|--------------------------------|
D|--------------------------------|
A|2-2-2-2-2-2-2-2-0-0-0-0-0-0-0-0-| x2
E|--------------------------------|


Chorus:

G|------------------------------------------------------------------|
D|------------------------------------------------------------------|
A|----------------2-2-2-2-5-5-5-7-----------------2-2-2-2-----------| x2
E|3-3-3-3-5-5-5-5----------------3-3-3-3-5-5-5-5---------5-5-5-5----|

^^^ A5-A7 jumps quickly


Outro (basically intro):

G|--------------|
D|--------------|
A|--------------| x4
E|3-3--3-5-5--7-|

G|--------|
D|--------|
A|--------|
E|3-------|


*thanks for picking my tab :)*

Almost there ...

Sign in to get your own page with links to favourite songs and more. You are just one click away...

Login with Facebook Login with Google