GuitarTabsExplorer icon
GuitarTabsExplorer icon

Log in

Songbook

  • Log in to add and see bookmarks

Last visited songs

  • No songs visited yet...
Telephones by Vacations

Bass tabs

Key: D

ğŸŽ¸ Intro:
 No bass for the first 4 bars

ğŸŽ¸ Verse 1:

G|-----------------------------------------------------------------|
D|5~~~~~~~~~----------------------5~~~~~~~~~-----------------------|
A|----------7--6--5~~~~~~~~~5-55------------7--6---5~~~~~~~~~--55--| x3
E|---------------------------7-------------------------------77--7-|


ğŸŽ¸ Chorus:

G|-----------------------------------------------------------------|
D|------------------------5-5-5-5---------------------------5-5-5-7|
A|7-7-7-7-6-6-6-6-5-5-5-5---------7-7-7-7-6-6-6-6-5-5-5-5-5--------| x2
E|-----------------------------------------------------------------|
*Hit D7 a little earlier to get that bounce*

G|---------------------------------|
D|---------------------------------|
A|7~~~~~~~~~\2-4h6-8---8---6-----6-|
E|---------------------------------|
ğŸŽ¸ Verse 2:

G|-----------------------------------------------------------------|
D|5~~~~~~~~~----------------------5~~~~~~~~~-----------------------|
A|----------7--6--5~~~~~~~~~5-55------------7--6---5~~~~~~~~~--55--| x4
E|---------------------------7-------------------------------77--7-|

ğŸŽ¸ Chorus:

G|-----------------------------------------------------------------|
D|------------------------5-5-5-5---------------------------5-5-5-7|
A|7-7-7-7-6-6-6-6-5-5-5-5---------7-7-7-7-6-6-6-6-5-5-5-5-5--------| x4
E|-----------------------------------------------------------------|
*Hit D7 a little earlier to get that bounce*

G|---------------------------------|
D|---------------------------------|
A|7~~~~~~~~~\2-4h6-8---8---6-----6\|
E|---------------------------------|

ğŸŽ¸ Outro:

G|-----------------------|
D|5~~~~~~~~~-------------|
A|----------7--6-5-------|X2
E|-----------------------|


************************************

| ~ Vibrato
| h Hammer-on
| \ Slide down

************************************

[ Privacy | About us ]

Welcome to the guitar community

Why join and log in?
- Get songbook with favourite songs
- Get custom made front page
- Submit chords and tabs
- Submit guitar-cover videos
- Get a lot of thumbs up for your work

Songbook

Last visited songs

Site
Home
Search
Community
Submit chords

Video

No video for this page. Check out how you can submit guitar-cover videos here

Search tabs and chords

Browse by artist

A B C D E F G H I J K L M N O P Q R S T U V W X Y Z #


Menu

Search

Video

Bookmark

Login