Log in

One click and you are in

Login with Facebook Login with Google

Why sign up and log in

Guitar Tabs Explorer
Usher guitar tabs for I dont mind

Guitar tabs

-------------------------------------------------------------------------------
                             I Don't Mind - Usher ft Juicy J
-------------------------------------------------------------------------------
Tabbed by: earce_7 didn't find a tab for this song so I wanted to add one,
I enjoy playing this song and hope you guys do too.

Tuning:Standard / Capo on 4th

How I play the intro/1st chorus: "Shawty, I don't mind..."

e|-------3-----1----3-----------------------------------------------|
B|--5---------------------------------------------------------------|
G|------------------------------------------------------------------|
D|------------------------------------------------------------------|
A|--3----0----------------------------------------------------------|
E|-------------1----3-----------------------------------------------|

Then jump to chords: "Go make that money, money, money..."

e|--3----3----1----3-----|            e|--0----0----1----3-----|
B|--5----1----1----3-----|            B|--1----1----1----3-----|
G|--5----2----2----4-----|    OR      G|--0----2----2----0-----|
D|--5----2----3----5-----|            D|--2----2----3----0-----|
A|--3----0----3----5-----|            A|--3----0----3----2-----|
E|--3----0----1----3-----|            E|--0----0----1----3-----|

Verses: "The ballers in here tonight.."

e|--3----3----|          e|--0----0----|
B|--5----1----|          B|--1----1----|
G|--5----2----|   OR     G|--0----2----|
D|--5----2----|          D|--2----2----|
A|--3----0----|          A|--3----0----|
E|--3----0----|          E|--0----0----|



************************************

| /   slide up
| \   slide down
| h   hammer-on
| p   pull-off
| ~   vibrato
| +   harmonic
| x   Mute note
| b   Bend
| pb  Pre-bend
| br  Bend release
| pbr Pre-bend release
| brb Bend release bend

Other versions of I Don't Mind

I don't mindChords

Almost there ...

Sign in to get your own page with links to favourite songs and more. You are just one click away...

Login with Facebook Login with Google