Search tabs and chords

Search for song, artist or band

Log in

One click and you are in

Login with Facebook Login with Google

Why sign up and log in

Guitar Tabs Explorer
Urban Dance Squad guitar tabs for Happy go fucked up

Guitar tabs

Title: Happy Go Fucked Up

These riffs make up 99% of the song:

|----------------------|
|----------------------|
|----------------------|
|-4-5-4-2-0------------|
|-----------2-0--------|
|----------------3-2-0-|

|------------0-|
|------------3-|
|------------2-|
|-----0------0-|
|-0-2----------|
|-------0------|

|---------------------------------|
|---------------------------------|
|-2---2---0---0-----0---0---0-----|
|---2---2---2---2-----------------|
|-----------------3---3---2---3-2-|
|---------------------------------|

pieter_horstman (at) hotmail.com

Almost there ...

Sign in to get your own page with links to favourite songs and more. You are just one click away...

Login with Facebook Login with Google