Log in

One click and you are in

Login with Facebook Login with Google

Why sign up and log in

Guitar Tabs Explorer
Unwound bass tabs for Radio gra

Bass tabs

Tuning: Standard (E A D G)


Intro: Starts at 0:49
G|------------------------------------------------|
D|-9--9--9--9--9--9--9--9--9--9--9--9--9--9--9--9-|
A|------------------------------------------------| x4
E|------------------------------------------------|

Verse 1: Starts at 1:08
G|------------------------------------------------|------------------------------------------------|
D|-9--9--9--9--9--9--9--9--9--9--9--9--9--9--9--7-|-9--9--9--9--9--9--9--9--9--9--9--9--9--9--9--9-|
A|------------------------------------------------|------------------------------------------------| x4
E|------------------------------------------------|------------------------------------------------|


Prechorus: Starts at 1:47
G|------------------------------------------------|------------------------------------------------|
D|------------------------------------------------|-------------------------0--0--0--0--0--0--0--0-|
A|------------------------------------------------|-4--4--4--4--4--4--4--4-------------------------|
E|-3--3--3--3--3--3--3--3--5--5--5--5--5--5--5--5-|------------------------------------------------|

G|------------------------------------------------|------------------------------------------------|
D|-7--7--7--7--5--5--5--5--3--3--3--3--5--5--5--5-|-7--7--7--7--------------2h3--0--0--2h3--0------|
A|------------------------------------------------|-------------3--3--3--3-------------------------|
E|------------------------------------------------|------------------------------------------------|


Chorus: Starts at 2:06
G|------------------------------------------------|------------------------------------------------|
D|------------------------------------------------|------------------------------------------------|
A|------------------------------------------------|------------------------------------------------|
E|-1--1--1--1--1--1--1--1--0--0--0--0--0--0--0--0-|-2--2--2--2--2--2--2--2--1--1--1--1--1--1--1--1-|

G|------------------------------------------------|
D|------------------------------------------------|
A|------------------------------------------------|
E|-0--0--0--0--0--0--0--0--2--2--2--2--2--2--2--2-|

Play this entire section 2 times

Verse 2: Starts at 2:35
G|------------------------------------------------|------------------------------------------------|
D|----------------------------------------------7-|-9--9--9--9--9--9--9--9--9--9--9--9--9--9--9--9-|
A|------------------------------------------------|------------------------------------------------|
E|-3--3--3--3--3--3--3--3--2--2--2--2--2--2--2----|------------------------------------------------|

G|------------------------------------------------|------------------------------------------------|
D|-9--9--9--9--9--9--9--9--9--9--9--9--9--9--9--7-|-9--9--9--9--9--9--9--9--9--9--9--9--9--9--9--9-|
A|------------------------------------------------|------------------------------------------------| x2
E|------------------------------------------------|------------------------------------------------|

G|------------------------------------------------|------------------------------------------------|
D|-9--9--9--9--9--9--9--9--9--9--9--9--9--9--9--7-|-9--9--9--9--9--9--9--9--9--9--9--9--9--9--9--7/|
A|------------------------------------------------|------------------------------------------------|
E|------------------------------------------------|------------------------------------------------|


Prechorus: Starts at 3:13
G|------------------------------------------------|------------------------------------------------|
D|------------------------------------------------|-------------------------0--0--0--0--0--0--0--0-|
A|------------------------------------------------|-4--4--4--4--4--4--4--4-------------------------|
E|-3--3--3--3--3--3--3--3--5--5--5--5--5--5--5--5-|------------------------------------------------|

G|------------------------------------------------|------------------------------------------------|
D|-7--7--7--7--5--5--5--5--3--3--3--3--5--5--5--5-|-7--7--7--7--------------2h3--0--0--2h3--0--0---|
A|------------------------------------------------|-------------3--3--3--3-------------------------|
E|------------------------------------------------|------------------------------------------------|


Chorus: Starts at 3:32
G|------------------------------------------------|------------------------------------------------|
D|------------------------------------------------|------------------------------------------------|
A|------------------------------------------------|------------------------------------------------|
E|-1--1--1--1--1--1--1--1--0--0--0--0--0--0--0--0-|-2--2--2--2--2--2--2--2--1--1--1--1--1--1--1--1-|

G|------------------------------------------------|
D|------------------------------------------------|
A|------------------------------------------------|
E|-0--0--0--0--0--0--0--0--2--2--2--2--2--2--2--2-|

Play this entire section 2 times


Outro: Starts at 4:01
G|------------------------------------------|---------------------|
D|------------------------------------------|---------------------|
A|------------------------------------------|---------------------|
E|-3--3--3--3--3--3\5---5--5--5--5--5--5--5-|-6--6--6--6--6--6--6-|

G|------------------------------------------|---------------------|
D|------------------------------------------|---------------------|
A|------------------------------------------|---------------------| x8
E|-3-----3-----3--3--3--5-----5-----5--5--5-|-6-----6-----6--6--6-|


***********************************
| /  Slide up
| \  Slide down
| h  Hammer-on
***********************************

Almost there ...

Sign in to get your own page with links to favourite songs and more. You are just one click away...

Login with Facebook Login with Google