Log in

One click and you are in

Login with Facebook Login with Google

Why sign up and log in

Guitar Tabs Explorer
Unscrood guitar tabs for Medium

Guitar tabs

this band is great!  try this song out!!

1 ----------------------------------------------------------------------
2 ----------------------------------------------------------------------
repeat 4 times
3 --7-7-7-7-7---5-5--4--4----------------------------------------
4 --7-7-7-7-7---5-5--4--4-----------------------------------------
5 --5-5-5-5-5---3-3--2--2---------------------------------------
6 --------------------------------3--0-0-----------------------------

1 -------------------------------------------------------------------
2 -------------------------------------------------------------------
3 ----------------------------8--9--6----------------------------
4 --4---5----7---------5-7-----------7------------------------
5 --2---3----5---5-7--------------------5-4-3-----------------
6 ---------------------------------------------------------------------

3 -----------------------------------------------------------------
4 --4---5-------------------------------------------------------
5 --2---3--------------------------------------------------------
6 ------------0-0-0-0-0-0-0

you guys MUST check this band out. They from Phoenix Arizona!
they really kick!!

	tabbed by :   Brandon
	wriitten by: UNSCROOD
	thanks!  ENJOY !!!

Almost there ...

Sign in to get your own page with links to favourite songs and more. You are just one click away...

Login with Facebook Login with Google