Log in

One click and you are in

Login with Facebook Login with Google

Why sign up and log in

Guitar Tabs Explorer
Unknown World guitar tabs for Yankee doodle

Intro

1st verse
--------0----0----------0-------------| 1st string (highest)
--1-1-3---1----3--1-1-3---1-0---------| 2nd string
--------------------------------------| 3rd string
--------------------------------------| 4th string
--------------------------------------| 5th string
- ------------------------------------|  6th string (lowest)

2nd verse
----------0--1--0------------------------|
--1--1--3----------3-1-0------0-1-1------|
------------------------0-2--------------|
-----------------------------------------|
-----------------------------------------|
-----------------------------------------|

1st verse lyrics:
 "Yankee Doodle went to town
Riding on a pony"

2nd verse lyrics:

Almost there ...

Sign in to get your own page with links to favourite songs and more. You are just one click away...

Login with Facebook Login with Google