Log in

One click and you are in

Login with Facebook Login with Google

Why sign up and log in

Guitar Tabs Explorer
Unknown Mortal Orchestra bass tabs for Nerve damage

Nerve Damage bass tab by Unknown Mortal Orchestra

Unknown Mortal Orchestra bass tabs for Nerve damage

Bass tabs

Verse:
G|--------------------------------|
D|--4--4-4-4-4-4-4\1-1-1-2-2-2/4--|
A|--------------------------------|
E|--------------------------------|(x4)

G|--------------------------------4--4-4-4-4-4-4-4--4-4--4-4-4--|
D|--4--------------2--------------------------------------------|
A|--------------------------------------------------------------|
E|--------------------------------------------------------------|
Chorus:
G|--------------------------------|
D|--4--4-4-4-4-4-4\1-1-1-2-2-2/4--|
A|--------------------------------|
E|--------------------------------|(x4)

G|--4--4--3-3--------------------4--4--3-3-----------------------------------5~--|
D|-------------4--4-4-4-4-4-4-4------------4--4-4-4-4-4-4-4-4-4-4-4-4-4-4-4------|
A|-------------------------------------------------------------------------------|
E|-------------------------------------------------------------------------------|


Verse:
G|--------------------------------|
D|--4--4-4-4-4-4-4\1-1-1-2-2-2/4--|
A|--------------------------------|
E|--------------------------------|(x4)

G|--------------------------------4--4-4-4-4-4-4-4--4-4--4-4-4--|
D|--4--------------2--------------------------------------------|
A|--------------------------------------------------------------|
E|--------------------------------------------------------------|


Chorus:
G|--------------------------------|
D|--4--4-4-4-4-4-4\1-1-1-2-2-2/4--|
A|--------------------------------|
E|--------------------------------|(x4)

G|--4--4--3-3--------------------4--4--3-3-----------------------------------5~--|
D|-------------4--4-4-4-4-4-4-4------------4--4-4-4-4-4-4-4-4-4-4-4-4-4-4-4------|
A|-------------------------------------------------------------------------------|
E|-------------------------------------------------------------------------------|


************************************

| / Slide up
| \ Slide down
| ~ Vibrato

Almost there ...

Sign in to get your own page with links to favourite songs and more. You are just one click away...

Login with Facebook Login with Google