Log in

One click and you are in

Login with Facebook Login with Google

Why sign up and log in

Guitar Tabs Explorer
Unknown Mortal Orchestra bass tabs for Multi-love

Multi-love bass tab by Unknown Mortal Orchestra

Unknown Mortal Orchestra bass tabs for Multi-love

Bass tabs

Tuning: Standard (E A D G)

No bass until Verse 2


Verse 2:

G|-----------------------|-4-----4----4/6--6--6--|-8----8--8--6--6-------|
D|-6-------6--6--6-4--4--|-----4----4------------|----8-------------4--4-|
A|-----4h6---------------|-----------------------|-----------------------|
E|-----------------------|-----------------------|-----------------------|

G|---------------8---7---|8-----8----------------|
D|-6-------6--6---8-8-8-8|--8--8-8---------------|
A|-----4h6---------6---6-|----6---6-------6--6-6-|
E|-----------------------|-----------------------|

G|-----------------------|-4-----4----4/6--6--6--|-8----8--8--6--6-------|
D|-6-------6--6--6-4--4--|-----4----4------------|----8-------------4--4-|
A|-----4h6---4--4--------|-----------------------|-----------------------|
E|-----------------------|-----------------------|-----------------------|

G|---------------8---7---|8-----8-------------8-8|
D|-6-------6--6---8-8-8-8|--8--8-8---------------|
A|-----4h6---------6---6-|----6---6-------6--6-6-|
E|-----------------------|-----------------------|


Chorus:

G|-------------------------|-------------------------|
D|-------------------------|-------------------------|
A|-6--6--4--4--------------|-2--2--------6--6--4--4--|
E|-------------2--2--4--4--|-------6--6--------------|

G|-------------------------|-------------------------|
D|-------------------------|-------------------------|
A|-6--6--4--4--------------|-------------------------|
E|-------------2--2--4--4--|-6--6--6--6--6--6--6--6--|

No bass until first verse repeats

Verse 1:
G|-----------------------|-4-----4----4/6--6--6--|-8----8--8--6--6-------|
D|-6-------6--6--6-4--4--|-----4----4------------|----8-------------4--4-|
A|-----4h6---------------|-----------------------|-----------------------|
E|-----------------------|-----------------------|-----------------------|

G|---------------8---7---|8-----8----------------|
D|-6-------6--6---8-8-8-8|--8--8-8---------------|
A|-----4h6---------6---6-|----6---6-------6--6-6-|
E|-----------------------|-----------------------|

G|-----------------------|-4-----4----4/6--6--6--|-8----8--8--6--6-------|
D|-6-------6--6--6-4--4--|-----4----4------------|----8-------------4--4-|
A|-----4h6---4--4--------|-----------------------|-----------------------|
E|-----------------------|-----------------------|-----------------------|

G|---------------8---7---|8-----8-------------8-8|
D|-6-------6--6---8-8-8-8|--8--8-8---------------|
A|-----4h6---------6---6-|----6---6-------6--6-6-|
E|-----------------------|-----------------------|


Chorus:

G|-------------------------|-------------------------|
D|-------------------------|-------------------------|
A|-6--6--4--4--------------|-2--2--------6--6--4--4--|
E|-------------2--2--4--4--|-------6--6--------------|

G|-------------------------|-------------------------|
D|-------------------------|-------------------------|
A|-6--6--4--4--------------|-------------------------|
E|-------------2--2--4--4--|-6--6--6--6--6--6--6--6--|

G|-------------------------|-------------------------|
D|-------------------------|-------------------------|
A|-6--6--4--4--------------|-2--2--------6--6--4--4--|
E|-------------2--2--4--4--|-------6--6--------------|

G|-------------------------|-------------------------|
D|-------------------------|-------------------------|
A|-6--6--4--4--------------|-------------------------|
E|-------------2--2--4--4--|-6--6--6--6--6--6--6--6--|

No bass in outro


************************************

| h  Hammer-on
| /  Slide up
| \  Slide down

************************************

Almost there ...

Sign in to get your own page with links to favourite songs and more. You are just one click away...

Login with Facebook Login with Google