Log in

One click and you are in

Login with Facebook Login with Google

Why sign up and log in

Guitar Tabs Explorer
United Live guitar tabs for Take it all

Guitar tabs with lyrics

Album: United We Stand
Track: Take it all
Track #: 3

Quality album by hillsongs united. This has been tabbed by Paul
Martin from
Hope church York (www.hopechurchuk.com ) . Any comments then email me
at paulm86@gmail.com .
Enjoy the song, thanks to Jeff Ku for some of the tab.
You can hear the track at
http://www2.hillsong.com/resource/0103-TakeItAll.mp3
Chords
B: x24442 or every now and again play "[9][11][12]x"
A chord diagramG# minorG#m 466444
A chord diagramE MajorE 022100 or x799xx
A chord diagramF#F# 244322
A chord diagramC# minorC#m x42


Intro + Verse
Guitar
|----------------------14------------------------12--|
|--14-14--12-12--11-11-------14-14--12-12--11-11-----|
|----------------------------------------------------|
|----------------------------------------------------|
|----------------------------------------------------|

The delay adds the audibly heard 3rd beat, make sure you set it to
min50% mix rate.
A chord diagramA augmentedA good setting if you have a Line 6 Pod is using either a multihead delay
with it set to 1-34. Or use your stereo delay and play around with the
settings. Use tap tempo and set your delay settings to 1 whole note.

Bass:

A chord diagramG+G|----------------------------------------------------|
A chord diagramD MajorD|----------------------------------------------------|
A chord diagramA augmentedA|---2-2-2--2-2-2--2-2-1-1-6-6------------------------|
A chord diagramE MajorE|----------------------------------------------------|


Verse 2:
0:25"                   0:41"
|-----------------------|--------------|
|--444--444--444-33-88--|--------------|
|--444--444--444-33-88--|--66--66--22--|
|--222--222--222-11-66--|--66--66--22--|
|-----------------------|--44--44--00--|


Chorus
0:45"
   A chord diagramBB A chord diagramF#F# A chord diagramG# minorG#m A chord diagramE MajorE  A chord diagramBB A chord diagramF#F# A chord diagramG# minorG#m A chord diagramC# minorC#m
|----------------------------------|
|--4-----------4--------6----------|
|--4--4--6--2--4--4--6--6(bend up)-|
|--2--4--6--2--2--4--6--4----------|
|-----2--4--0-----2--4-------------|


back into the intro after chorus then into verse2.

Pre-Bridge
1:42"
|-----------------------|
|--4444-6666-8888-9999--|
|-----------------------|
|--2222-4444-6666-7777--|
|-----------------------|


Bridge 1:45"
|-----------------------------------2--------|
|--66--------------66---------3b4r3---3b4r3--|
|--66--66--44--22--66--66--44----------------|   Bridge x 2 but ending on a A chord diagramBB
|--44--66--44--22--44--66--44----------------|              (my life....)=B
|------44--22--00------44--22----------------|


----------------------------------------------------------------------------

----------------------------------------------------------------------------
Simple Chords


Verse1:  A chord diagramBB all the way through

Verse 2: A chord diagramBB - A chord diagramG# minorG#m (my god, i'll only...) - A chord diagramE MajorE


Chorus:  A chord diagramBB - A chord diagramF#F# - A chord diagramG# minorG#m - A chord diagramE MajorE
         A chord diagramBB - A chord diagramF# minorF#m -C#m


Bridge: A chord diagramC# minorC#m - A chord diagramG# minorG#m - A chord diagramF#F# - A chord diagramE MajorE
        A chord diagramC# minorC#m - A chord diagramG# minorG#m - A chord diagramF#F#
        A chord diagramC# minorC#m - A chord diagramG# minorG#m - A chord diagramF#F# - A chord diagramE MajorE  - A chord diagramBB


Lyrics
Searching the world
The lost will be found
In freedom we live
As one we cry out
You carried the cross
You died and rose again
My God
I'll only ever give my all

You sent Your Son
From heaven to earth
You delivered us all
It's eternally heard
I searched for truth
And all I found was You
My God
I'll only ever give my all


[chorus]
Jesus we're living Your Name
We'll never be ashamed of You
Our praise and all we are today
Take take take it all
Take take take it all


[bridge]
Running to the One Who heals the blind
Following the shining light
In Your hands The power to save the world
My life

Almost there ...

Sign in to get your own page with links to favourite songs and more. You are just one click away...

Login with Facebook Login with Google