Log in

One click and you are in

Login with Facebook Login with Google

Why sign up and log in

Guitar Tabs Explorer
Union Jack bass tabs for Black cat

Bass tabs

Chanson : Black Cat
Artiste : Union Jack
Album : Tales Of Urban Freedom


Intro :

G |-------------------------------------------------------------------------|
D |---------77-66--6----------9-9-9-7-6--------77-66-99-77--------9-9-9-7-6-|
A |-4-444-44-----77-7-5-555-55---------4-444-44-----------5-555-55----------| x2
E |-------------------------------------------------------------------------|
Verse :

G |-------------------------------------------------------------------------|
D |---------77-66--6----------9-9-9-7-6--------77-66-99-77--------9-9-9-7-6-|
A |-4-444-44-----77-7-5-555-55---------4-444-44-----------5-555-55----------|
E |-------------------------------------------------------------------------|

G |-------------------------------------------------------------------------|
D |---------77-66--6----------9-9-9-11-6--------77-66--6----------9-9-9-7-6-|
A |-4-444-44-----77-7-5-555-55----------4-444-44-----77-7-5-555-55----------|
E |-------------------------------------------------------------------------|

G |-------------------------------------------------------------------------|
D |---------77-66--6----------9-9-9-7-6--------77-66-99-77--------9-9-9-7-6-|
A |-4-444-44-----77-7-5-555-55---------4-444-44-----------5-555-55----------|
E |-------------------------------------------------------------------------|


Chorus :

G |--------------------------------------|
D |--------------------------------------|
A |-44444444-55555555--------------------| x3
E |------------------77777777-(55555555)-|

Verse 2 :
G |-------------------------------------------------------------------------|
D |---------77-66--6----------9-9-9-7-6--------77-66-99-77--------9-9-9-7-6-|
A |-4-444-44-----77-7-5-555-55---------4-444-44-----------5-555-55----------| x2
E |-------------------------------------------------------------------------|

G |--------------------------------------------------------------------------|
D |---------77-66--6----------9-9-9-7-6--------77-66-99-77--------9-9-9-11-6-|
A |-4-444-44-----77-7-5-555-55---------4-444-44-----------5-555-55-----------|
E |--------------------------------------------------------------------------|

G |-------------------------------------------------------------------------|
D |---------77-66--6----------9-9-9-7-6--------77-66-99-77--------9-9-9-7-6-|
A |-4-444-44-----77-7-5-555-55---------4-444-44-----------5-555-55----------|
E |-------------------------------------------------------------------------|

Guitare solo :
 |                           | 1ère fin   | 2ème fin |
G |------------------------------------------------------|---------------|----------|
D |------------------------------------------------------|---------------|----------|
A |-44444444-55555555---------44444444-55555555----------|-44-55---------|-4--------|
E |------------------55555555-------------------55555555-|------55555555-|----------|


Break I :

G |---------------------------|
D |---------------------------|
A |-44444444-55555555---------| x8
E |------------------55555555-|


Break II :

G |-----------------------------------------|
D |-----------------------------------------|
A |-4-4-4-4h5-5-5-5-5p0-0-0-0-0-5p0-0-0-0-0-| x4
E |-----------------------------------------|


Chorus 3 :

G |--------------------------------------|
D |--------------------------------------|
A |-44444444-55555555--------------------| x4
E |------------------77777777-(55555555)-|


Outro :

G |-------------------|
D |-------------------|
A |-44--55----------4-|

Almost there ...

Sign in to get your own page with links to favourite songs and more. You are just one click away...

Login with Facebook Login with Google