Log in

One click and you are in

Login with Facebook Login with Google

Why sign up and log in

Guitar Tabs Explorer
The Unicorns guitar tabs for Sea ghost

Guitar tabs

Sea Ghost - The Unicorns

Tabbed By: Chris Fowler


Tuning: Standard

e-7-9-7-0-7-x-7-| (repeat 3x)
b---------9-9-9-|
g---------9-9-9-|
d---------9-9-9-|
a---------7-7-7-|
E---------------|

I dove into that freezing sea...
e-7-x-7-x-7-x-7-x-7-x-7-x-7-9-7-0| (repeat 2x)
b-9-9-9-9-9-9-9-9-9-9-9-9--------|
g-9-9-9-9-9-9-9-9-9-9-9-9--------|
d-9-9-9-9-9-9-9-9-9-9-9-9--------|
a-7-7-7-7-7-7-7-7-7-7-7-7--------|
E--------------------------------|

I had hoped the salt below...
e-5-x-5-x-5-x-5-x-5-x-5-x-5-x-5-5| (repeat 1x)
b-5-5-5-5-5-5-5-5-5-5-5-5-5-5-5-5|
g-6-6-6-6-6-6-6-6-6-6-6-6-6-6-6-6|
d-7-7-7-7-7-7-7-7-7-7-7-7-7-7-7-7|
a-7-7-7-7-7-7-7-7-7-7-7-7-7-7-7-7|
E-5-5-5-5-5-5-5-5-5-5-5-5-5-5-5-5|

Would divorce what was wed above...
e-7-x-7-x-7-x-7-x-7-x-7-x-7-x-7-7| (repeat 1x)
b-9-9-9-9-9-9-9-9-9-9-9-9-9-9-9-9|
g-9-9-9-9-9-9-9-9-9-9-9-9-9-9-9-9|
d-9-9-9-9-9-9-9-9-9-9-9-9-9-9-9-9|
a-7-7-7-7-7-7-7-7-7-7-7-7-7-7-7-7|
E--------------------------------|

But league after league...

e-7-x-7-x-7-x-7-x-7-x-7-x-7-x-7-7| (repeat 1x)
b-9-9-9-9-9-9-9-9-9-9-9-9-9-9-9-9|
g-9-9-9-9-9-9-9-9-9-9-9-9-9-9-9-9|
d-9-9-9-9-9-9-9-9-9-9-9-9-9-9-9-9|
a-7-7-7-7-7-7-7-7-7-7-7-7-7-7-7-7|
E--------------------------------|

It yet remained...
e-5-x-5-x-5-x-5-x-5-x-5-x-5-x-5-5| (repeat 1x)
d-5-5-5-5-5-5-5-5-5-5-5-5-5-5-5-5|
g-6-6-6-6-6-6-6-6-6-6-6-6-6-6-6-6|
d-7-7-7-7-7-7-7-7-7-7-7-7-7-7-7-7|
a-7-7-7-7-7-7-7-7-7-7-7-7-7-7-7-7|
E-5-5-5-5-5-5-5-5-5-5-5-5-5-5-5-5|

For the fleshy vessel I
e-7-x-7-x-7-x-7-x-7-x-7-x-7-x-7-7| (repeat 1x)
b-9-9-9-9-9-9-9-9-7-7-7-7-7-7-7-7|
g-9-9-9-9-9-9-9-9-8-8-8-8-8-8-8-8|
d-9-9-9-9-9-9-9-9-9-9-9-9-9-9-9-9|
a-7-7-7-7-7-7-7-7-9-9-9-9-9-9-9-9|
E-----------------7-7-7-7-7-7-7-7|

Kept it sustained...
e-7-x-7-x-7-x-7-7-7| (repeat 1x)
b-9-9-9-9-9-9-9-9-9|
g-9-9-9-9-9-9-9-9-9|
d-9-9-9-9-9-9-9-9-9|
a-7-7-7-7-7-7-7-7-7|
E------------------|

Other versions of Sea Ghost

Sea ghostChords

Almost there ...

Sign in to get your own page with links to favourite songs and more. You are just one click away...

Login with Facebook Login with Google