Log in

One click and you are in

Login with Facebook Login with Google

Why sign up and log in

Guitar Tabs Explorer
The Unicorns tabs for I was born a unicorn

Guitar tabs

I Was Born (A chord diagramA augmentedA Unicorn)
The Unicorns
tabbed by Binuts
Tune down 1/4 step
      E.   A chord diagramE MajorE   S  A chord diagramE MajorE   E.   A chord diagramE MajorE   S  A chord diagramE MajorE      E.   A chord diagramE MajorE   S  A chord diagramE MajorE   A chord diagramE MajorE   A chord diagramE MajorE   A chord diagramE MajorE   A chord diagramE MajorE
A chord diagramE MajorE||-------12--------------12---------|-------12---------12--14--12------|
A chord diagramBB||-----------14--------------14-----|-----------14---------------------|
A chord diagramG+G||--14----------14--14----------14--|--13----------13--------------13--|
A chord diagramD MajorD||----------------------------------|----------------------------------|
A chord diagramA augmentedA||----------------------------------|----------------------------------|
A chord diagramE MajorE||----------------------------------|----------------------------------|


   E.   A chord diagramE MajorE   S  A chord diagramE MajorE   E.   A chord diagramE MajorE   S  A chord diagramE MajorE      E.   A chord diagramE MajorE   S  A chord diagramE MajorE   A chord diagramE MajorE   A chord diagramE MajorE   A chord diagramE MajorE   A chord diagramE MajorE
-------12--------------12---------|-------12---------12--14--12------|
-----------14--------------14-----|-----------14---------------------|
--14----------14--14----------14--|--13----------13--------------13--|
----------------------------------|----------------------------------|
----------------------------------|----------------------------------|
----------------------------------|----------------------------------|


   E.   A chord diagramE MajorE   S  A chord diagramE MajorE   E.   A chord diagramE MajorE   S  A chord diagramE MajorE      E.   A chord diagramE MajorE   S  A chord diagramE MajorE   A chord diagramE MajorE   A chord diagramE MajorE   A chord diagramE MajorE   A chord diagramE MajorE
-------12--------------12---------|-------12---------12--14--12------|
-----------14--------------14-----|-----------14---------------------|
--14----------14--14----------14--|--13----------13--------------13--|
----------------------------------|----------------------------------|
----------------------------------|----------------------------------|
----------------------------------|----------------------------------|


   E.   A chord diagramE MajorE   S  A chord diagramE MajorE   E.   A chord diagramE MajorE   S  A chord diagramE MajorE      E.   A chord diagramE MajorE   S  A chord diagramE MajorE   A chord diagramE MajorE   A chord diagramE MajorE   Q
-------12--------------12---------|-------12---------12--14--16----|
-----------14--------------14-----|-----------14-------------------|
--14----------14--14----------14--|--13----------13----------------|
----------------------------------|--------------------------------|
----------------------------------|--------------------------------|
----------------------------------|--------------------------------|

    E.  A chord diagramE MajorE  S A chord diagramE MajorE  E.  A chord diagramE MajorE  S A chord diagramE MajorE       E.  A chord diagramE MajorE  S A chord diagramE MajorE  A chord diagramE MajorE  A chord diagramE MajorE  A chord diagramE MajorE  A chord diagramE MajorE
--------5-----------5-------|--------7-------7--9--7--9--|
-----------5-----------5----|-----------9----9--9--9--9--|
--5g6--------6--6--------6--|--8g9--------9--9--9--9--9--|
----------------------------|----------------------------|
----------------------------|----------------------------|
----------------------------|----------------------------|


    E.  A chord diagramE MajorE  S A chord diagramE MajorE  E.  A chord diagramE MajorE  S A chord diagramE MajorE       E.  A chord diagramE MajorE  S A chord diagramE MajorE  S S S S S S A chord diagramE MajorE
--------5-----------5-------|--------7-------9-9-9-9-9-9-7--|
-----------5-----------5----|-----------9----9-9-9-9-9-9-9--|
--5g6--------6--6--------6--|--8g9--------9--9-9-9-9-9-9-9--|
----------------------------|-------------------------------|
----------------------------|-------------------------------|
----------------------------|-------------------------------|


    E.  A chord diagramE MajorE  S A chord diagramE MajorE  E.  A chord diagramE MajorE  S A chord diagramE MajorE       E.  A chord diagramE MajorE  S A chord diagramE MajorE  A chord diagramE MajorE  A chord diagramE MajorE  A chord diagramE MajorE  A chord diagramE MajorE
--------5-----------5-------|--------7-------7--9--7--9--|
-----------5-----------5----|-----------9----9--9--9--9--|
--5g6--------6--6--------6--|--8g9--------9--9--9--9--9--|
----------------------------|----------------------------|
----------------------------|----------------------------|
----------------------------|----------------------------|


    E.  A chord diagramE MajorE  S A chord diagramE MajorE  E.  A chord diagramE MajorE  S A chord diagramE MajorE       E.  A chord diagramE MajorE  S A chord diagramE MajorE  H
--------5-----------5-------|--------7-------7--------|
-----------5-----------5----|-----------9----9--------|
--5g6--------6--6--------6--|--8g9--------9--9--------|
----------------------------|-------------------------|
----------------------------|-------------------------|
----------------------------|-------------------------|


  A chord diagramE MajorE  A chord diagramE MajorE  A chord diagramE MajorE  A chord diagramE MajorE  A chord diagramE MajorE  A chord diagramE MajorE  A chord diagramE MajorE  A chord diagramE MajorE     A chord diagramE MajorE  A chord diagramE MajorE  A chord diagramE MajorE  A chord diagramE MajorE  A chord diagramE MajorE  A chord diagramE MajorE  A chord diagramE MajorE  A chord diagramE MajorE
--------------------------|-----------------------5--|
--------5-----------7-----|--------5-----------5-----|
--6--6-----6--7--7-----7--|--6--6-----6--4--4--------|
--------------------------|--------------------------|
--------------------------|--------------------------|
--------------------------|--------------------------|


  A chord diagramE MajorE  A chord diagramE MajorE  A chord diagramE MajorE  A chord diagramE MajorE  A chord diagramE MajorE  A chord diagramE MajorE  A chord diagramE MajorE  A chord diagramE MajorE     A chord diagramE MajorE  A chord diagramE MajorE  A chord diagramE MajorE  A chord diagramE MajorE  A chord diagramE MajorE  A chord diagramE MajorE  A chord diagramE MajorE  A chord diagramE MajorE
--------------------------|-----------------------5--|
--------5-----------7-----|--------5-----------5-----|
--6--6-----6--7--7-----7--|--6--6-----6--4--4--------|
--------------------------|--------------------------|
--------------------------|--------------------------|
--------------------------|--------------------------|


  A chord diagramE MajorE  A chord diagramE MajorE  A chord diagramE MajorE  A chord diagramE MajorE  A chord diagramE MajorE  A chord diagramE MajorE  A chord diagramE MajorE  A chord diagramE MajorE     A chord diagramE MajorE  A chord diagramE MajorE  A chord diagramE MajorE  A chord diagramE MajorE  A chord diagramE MajorE  A chord diagramE MajorE  A chord diagramE MajorE  A chord diagramE MajorE
--------------------------|-----------------------5--|
--------5-----------7-----|--------5-----------5-----|
--6--6-----6--7--7-----7--|--6--6-----6--4--4--------|
--------------------------|--------------------------|
--------------------------|--------------------------|
--------------------------|--------------------------|


  A chord diagramE MajorE  A chord diagramE MajorE  A chord diagramE MajorE  A chord diagramE MajorE  A chord diagramE MajorE  A chord diagramE MajorE  A chord diagramE MajorE  A chord diagramE MajorE     A chord diagramE MajorE  A chord diagramE MajorE  A chord diagramE MajorE  A chord diagramE MajorE  A chord diagramE MajorE  A chord diagramE MajorE  A chord diagramE MajorE  A chord diagramE MajorE
--------------------------|-----------------------5--|
--------5-----------7-----|--------5-----------5-----|
--6--6-----6--7--7-----7--|--6--6-----6--4--4--------|
--------------------------|--------------------------|
--------------------------|--------------------------|
--------------------------|--------------------------|


  A chord diagramE MajorE  A chord diagramE MajorE  A chord diagramE MajorE  A chord diagramE MajorE  A chord diagramE MajorE  A chord diagramE MajorE  A chord diagramE MajorE  A chord diagramE MajorE     A chord diagramE MajorE  A chord diagramE MajorE  A chord diagramE MajorE  A chord diagramE MajorE  A chord diagramE MajorE  A chord diagramE MajorE  A chord diagramE MajorE  A chord diagramE MajorE
--------------------------|-----------------------5--|
--------5-----------7-----|--------5-----------5-----|
--6--6-----6--7--7-----7--|--6--6-----6--4--4--------|
--------------------------|--------------------------|
--------------------------|--------------------------|
--------------------------|--------------------------|


  A chord diagramE MajorE  A chord diagramE MajorE  A chord diagramE MajorE  A chord diagramE MajorE  A chord diagramE MajorE  A chord diagramE MajorE  A chord diagramE MajorE  A chord diagramE MajorE     A chord diagramE MajorE  A chord diagramE MajorE  A chord diagramE MajorE  A chord diagramE MajorE  A chord diagramE MajorE  A chord diagramE MajorE  A chord diagramE MajorE  A chord diagramE MajorE
--------------------------|-----------------------5--|
--------5-----------7-----|--------5-----------5-----|
--6--6-----6--7--7-----7--|--6--6-----6--4--4--------|
--------------------------|--------------------------|
--------------------------|--------------------------|
--------------------------|--------------------------|


  A chord diagramE MajorE  A chord diagramE MajorE  A chord diagramE MajorE  A chord diagramE MajorE  A chord diagramE MajorE  A chord diagramE MajorE  A chord diagramE MajorE  A chord diagramE MajorE     A chord diagramE MajorE  A chord diagramE MajorE  A chord diagramE MajorE  A chord diagramE MajorE  A chord diagramE MajorE  A chord diagramE MajorE  A chord diagramE MajorE  A chord diagramE MajorE     Q.     A chord diagramE MajorE  Q.     A chord diagramE MajorE
--------------------------|-----------------------5--|--5------4--5------4--|
--------5-----------7-----|--------5-----------5-----|--5------4--5------4--|
--6--6-----6--7--7-----7--|--6--6-----6--4--4--------|--6------5--6------5--|
--------------------------|--------------------------|--7------6--7------6--|
--------------------------|--------------------------|--7------6--7------6--|
--------------------------|--------------------------|--5------4--5------4--|


  Q.     A chord diagramE MajorE  Q.     A chord diagramE MajorE     Q.     A chord diagramE MajorE  Q.     A chord diagramE MajorE     A chord diagramE MajorE  A chord diagramE MajorE  A chord diagramE MajorE  A chord diagramE MajorE  A chord diagramE MajorE  A chord diagramE MajorE  A chord diagramE MajorE  A chord diagramE MajorE
--5------4--5------4--|--5------4--5------4--|--5--5--5--5--5--5--5--5--|
--5------4--5------4--|--5------4--5------4--|--5--5--5--5--5--5--5--5--|
--6------5--6------5--|--6------5--6------5--|--6--6--6--6--6--6--6--6--|
--7------6--7------6--|--7------6--7------6--|--7--7--7--7--7--7--7--7--|
--7------6--7------6--|--7------6--7------6--|--7--7--7--7--7--7--7--7--|
--5------4--5------4--|--5------4--5------4--|--5--5--5--5--5--5--5--5--|


  Q    Q    A chord diagramE MajorE  A chord diagramE MajorE  A chord diagramE MajorE  A chord diagramE MajorE     Q    Q    A chord diagramE MajorE  A chord diagramE MajorE  Q       Q    Q    A chord diagramE MajorE  A chord diagramE MajorE  A chord diagramE MajorE  A chord diagramE MajorE
------------------------|-----------------------|------------------------|
--2----2----2--3--2--3--|--0----0----0--0--0----|--2----2----2--3--2--3--|
--2----2----2--2--2--2--|--1----1----1--2--1----|--2----2----2--2--2--2--|
--2----2----2--2--2--2--|--2----2----2--2--2----|--2----2----2--2--2--2--|
--0----0----0--0--0--0--|--2----2----2--2--2----|--0----0----0--0--0--0--|
------------------------|-----------------------|------------------------|


  Q    Q    A chord diagramE MajorE  A chord diagramE MajorE  Q       Q    Q    A chord diagramE MajorE  A chord diagramE MajorE  A chord diagramE MajorE  A chord diagramE MajorE     Q    Q    A chord diagramE MajorE  A chord diagramE MajorE  Q
-----------------------|------------------------|-----------------------|
--0----0----0--0--0----|--2----2----2--3--2--3--|--0----0----0--0--0----|
--1----1----1--2--1----|--2----2----2--2--2--2--|--1----1----1--2--1----|
--2----2----2--2--2----|--2----2----2--2--2--2--|--2----2----2--2--2----|
--2----2----2--2--2----|--0----0----0--0--0--0--|--2----2----2--2--2----|
-----------------------|------------------------|-----------------------|


  Q    Q    A chord diagramE MajorE  A chord diagramE MajorE  A chord diagramE MajorE  A chord diagramE MajorE     Q    Q    A chord diagramE MajorE  A chord diagramE MajorE  Q       A chord diagramE MajorE  A chord diagramE MajorE  A chord diagramE MajorE  A chord diagramE MajorE  A chord diagramE MajorE  A chord diagramE MajorE  A chord diagramE MajorE  A chord diagramE MajorE
------------------------|-----------------------|--------------------------|
--2----2----2--3--2--3--|--0----0----0--0--0----|--------5-----------7-----|
--2----2----2--2--2--2--|--1----1----1--2--1----|--6--6-----6--7--7-----7--|
--2----2----2--2--2--2--|--2----2----2--2--2----|--------------------------|
--0----0----0--0--0--0--|--2----2----2--2--2----|--------------------------|
------------------------|-----------------------|--------------------------|


  A chord diagramE MajorE  A chord diagramE MajorE  A chord diagramE MajorE  A chord diagramE MajorE  A chord diagramE MajorE  A chord diagramE MajorE  A chord diagramE MajorE  A chord diagramE MajorE     A chord diagramE MajorE  A chord diagramE MajorE  A chord diagramE MajorE  A chord diagramE MajorE  A chord diagramE MajorE  A chord diagramE MajorE  A chord diagramE MajorE  A chord diagramE MajorE
-----------------------5--|--------------------------|
--------5-----------5-----|--------5-----------7-----|
--6--6-----6--4--4--------|--6--6-----6--7--7-----7--|
--------------------------|--------------------------|
--------------------------|--------------------------|
--------------------------|--------------------------|


  A chord diagramE MajorE  A chord diagramE MajorE  A chord diagramE MajorE  A chord diagramE MajorE  A chord diagramE MajorE  A chord diagramE MajorE  A chord diagramE MajorE  A chord diagramE MajorE     A chord diagramE MajorE  A chord diagramE MajorE  A chord diagramE MajorE  A chord diagramE MajorE  A chord diagramE MajorE  A chord diagramE MajorE  A chord diagramE MajorE  A chord diagramE MajorE
-----------------------5--|--------------------------|
--------5-----------5-----|--------5-----------7-----|
--6--6-----6--4--4--------|--6--6-----6--7--7-----7--|
--------------------------|--------------------------|
--------------------------|--------------------------|
--------------------------|--------------------------|


  A chord diagramE MajorE  A chord diagramE MajorE  A chord diagramE MajorE  A chord diagramE MajorE  A chord diagramE MajorE  A chord diagramE MajorE  A chord diagramE MajorE  A chord diagramE MajorE     A chord diagramE MajorE  A chord diagramE MajorE  A chord diagramE MajorE  A chord diagramE MajorE  A chord diagramE MajorE  A chord diagramE MajorE  A chord diagramE MajorE  A chord diagramE MajorE
-----------------------5--|--------------------------|
--------5-----------5-----|--------5-----------7-----|
--6--6-----6--4--4--------|--6--6-----6--7--7-----7--|
--------------------------|--------------------------|
--------------------------|--------------------------|
--------------------------|--------------------------|


  A chord diagramE MajorE  A chord diagramE MajorE  A chord diagramE MajorE  A chord diagramE MajorE  A chord diagramE MajorE  A chord diagramE MajorE  A chord diagramE MajorE  A chord diagramE MajorE     Q.     A chord diagramE MajorE  Q.     A chord diagramE MajorE     Q.     A chord diagramE MajorE  Q.     A chord diagramE MajorE
-----------------------5--|--5------4--5------4--|--5------4--5------4--|
--------5-----------5-----|--5------4--5------4--|--5------4--5------4--|
--6--6-----6--4--4--------|--6------5--6------5--|--6------5--6------5--|
--------------------------|--7------6--7------6--|--7------6--7------6--|
--------------------------|--7------6--7------6--|--7------6--7------6--|
--------------------------|--5------4--5------4--|--5------4--5------4--|


  Q.     A chord diagramE MajorE  Q.     A chord diagramE MajorE     A chord diagramE MajorE  A chord diagramE MajorE  A chord diagramE MajorE  A chord diagramE MajorE  A chord diagramE MajorE  A chord diagramE MajorE  A chord diagramE MajorE  A chord diagramE MajorE     W
--5------4--5------4--|--5--5--5--5--5--5--5--5--|-------------------|
--5------4--5------4--|--5--5--5--5--5--5--5--5--|-------------------|
--6------5--6------5--|--6--6--6--6--6--6--6--6--|-------------------|
--7------6--7------6--|--7--7--7--7--7--7--7--7--|-------------------|
--7------6--7------6--|--7--7--7--7--7--7--7--7--|-------------------|
--5------4--5------4--|--5--5--5--5--5--5--5--5--|-------------------|


  W                   W                   W                   W
-------------------|-------------------|-------------------|-------------------|
-------------------|-------------------|-------------------|-------------------|
-------------------|-------------------|-------------------|-------------------|
-------------------|-------------------|-------------------|-------------------|
-------------------|-------------------|-------------------|-------------------|
-------------------|-------------------|-------------------|-------------------|


  W                   W                   W
-------------------|-------------------|-------------------|
-------------------|-------------------|-------------------|
-------------------|-------------------|-------------------|
-------------------|-------------------|-------------------|
-------------------|-------------------|-------------------|
-------------------|-------------------|-------------------|


  PM PM PM PM PM PM PM PM    PM PM PM PM PM PM PM      PM PM PM PM PM PM PM PM
  A chord diagramE MajorE  A chord diagramE MajorE  A chord diagramE MajorE  A chord diagramE MajorE  A chord diagramE MajorE  A chord diagramE MajorE  A chord diagramE MajorE  A chord diagramE MajorE     A chord diagramE MajorE  A chord diagramE MajorE  A chord diagramE MajorE  A chord diagramE MajorE  A chord diagramE MajorE  A chord diagramE MajorE  Q       A chord diagramE MajorE  A chord diagramE MajorE  A chord diagramE MajorE  A chord diagramE MajorE  A chord diagramE MajorE  A chord diagramE MajorE  A chord diagramE MajorE  A chord diagramE MajorE
--------------------------|-------------------------|--------------------------|
--2--2--2--2--2--3--2--3--|--0--0--0--0--0--0--0----|--2--2--2--2--2--3--2--3--|
--2--2--2--2--2--2--2--2--|--1--1--1--1--1--2--1----|--2--2--2--2--2--2--2--2--|
--2--2--2--2--2--2--2--2--|--2--2--2--2--2--2--2----|--2--2--2--2--2--2--2--2--|
--0--0--0--0--0--0--0--0--|--2--2--2--2--2--2--2----|--0--0--0--0--0--0--0--0--|
--------------------------|-------------------------|--------------------------|


  PM PM PM PM PM PM PM      PM PM PM PM PM PM PM PM    PM PM PM PM PM PM PM
  A chord diagramE MajorE  A chord diagramE MajorE  A chord diagramE MajorE  A chord diagramE MajorE  A chord diagramE MajorE  A chord diagramE MajorE  Q       A chord diagramE MajorE  A chord diagramE MajorE  A chord diagramE MajorE  A chord diagramE MajorE  A chord diagramE MajorE  A chord diagramE MajorE  A chord diagramE MajorE  A chord diagramE MajorE     A chord diagramE MajorE  A chord diagramE MajorE  A chord diagramE MajorE  A chord diagramE MajorE  A chord diagramE MajorE  A chord diagramE MajorE  Q
-------------------------|--------------------------|-------------------------|
--0--0--0--0--0--0--0----|--2--2--2--2--2--3--2--3--|--0--0--0--0--0--0--0----|
--1--1--1--1--1--2--1----|--2--2--2--2--2--2--2--2--|--1--1--1--1--1--2--1----|
--2--2--2--2--2--2--2----|--2--2--2--2--2--2--2--2--|--2--2--2--2--2--2--2----|
--2--2--2--2--2--2--2----|--0--0--0--0--0--0--0--0--|--2--2--2--2--2--2--2----|
-------------------------|--------------------------|-------------------------|


  PM PM PM PM PM PM PM PM    PM PM PM PM PM PM PM      PM PM PM PM PM PM PM PM
  A chord diagramE MajorE  A chord diagramE MajorE  A chord diagramE MajorE  A chord diagramE MajorE  A chord diagramE MajorE  A chord diagramE MajorE  A chord diagramE MajorE  A chord diagramE MajorE     A chord diagramE MajorE  A chord diagramE MajorE  A chord diagramE MajorE  A chord diagramE MajorE  A chord diagramE MajorE  A chord diagramE MajorE  Q       A chord diagramE MajorE  A chord diagramE MajorE  A chord diagramE MajorE  A chord diagramE MajorE  A chord diagramE MajorE  A chord diagramE MajorE  A chord diagramE MajorE  A chord diagramE MajorE
--------------------------|-------------------------|--------------------------|
--2--2--2--2--2--3--2--3--|--0--0--0--0--0--0--0----|--2--2--2--2--2--3--2--3--|
--2--2--2--2--2--2--2--2--|--1--1--1--1--1--2--1----|--2--2--2--2--2--2--2--2--|
--2--2--2--2--2--2--2--2--|--2--2--2--2--2--2--2----|--2--2--2--2--2--2--2--2--|
--0--0--0--0--0--0--0--0--|--2--2--2--2--2--2--2----|--0--0--0--0--0--0--0--0--|
--------------------------|-------------------------|--------------------------|


  PM PM PM PM PM PM PM      PM PM PM PM PM PM PM PM    PM PM PM PM PM PM PM
  A chord diagramE MajorE  A chord diagramE MajorE  A chord diagramE MajorE  A chord diagramE MajorE  A chord diagramE MajorE  A chord diagramE MajorE  Q       A chord diagramE MajorE  A chord diagramE MajorE  A chord diagramE MajorE  A chord diagramE MajorE  A chord diagramE MajorE  A chord diagramE MajorE  A chord diagramE MajorE  A chord diagramE MajorE     A chord diagramE MajorE  A chord diagramE MajorE  A chord diagramE MajorE  A chord diagramE MajorE  A chord diagramE MajorE  A chord diagramE MajorE  Q
-------------------------|--------------------------|-------------------------|
--0--0--0--0--0--0--0----|--2--2--2--2--2--3--2--3--|--0--0--0--0--0--0--0----|
--1--1--1--1--1--2--1----|--2--2--2--2--2--2--2--2--|--1--1--1--1--1--2--1----|
--2--2--2--2--2--2--2----|--2--2--2--2--2--2--2--2--|--2--2--2--2--2--2--2----|
--2--2--2--2--2--2--2----|--0--0--0--0--0--0--0--0--|--2--2--2--2--2--2--2----|
-------------------------|--------------------------|-------------------------|


  PM PM PM PM PM PM PM PM    PM PM PM PM PM PM PM      PM PM PM PM PM PM PM PM
  A chord diagramE MajorE  A chord diagramE MajorE  A chord diagramE MajorE  A chord diagramE MajorE  A chord diagramE MajorE  A chord diagramE MajorE  A chord diagramE MajorE  A chord diagramE MajorE     A chord diagramE MajorE  A chord diagramE MajorE  A chord diagramE MajorE  A chord diagramE MajorE  A chord diagramE MajorE  A chord diagramE MajorE  Q       A chord diagramE MajorE  A chord diagramE MajorE  A chord diagramE MajorE  A chord diagramE MajorE  A chord diagramE MajorE  A chord diagramE MajorE  A chord diagramE MajorE  A chord diagramE MajorE
--------------------------|-------------------------|--------------------------|
--2--2--2--2--2--3--2--3--|--0--0--0--0--0--0--0----|--2--2--2--2--2--3--2--3--|
--2--2--2--2--2--2--2--2--|--1--1--1--1--1--2--1----|--2--2--2--2--2--2--2--2--|
--2--2--2--2--2--2--2--2--|--2--2--2--2--2--2--2----|--2--2--2--2--2--2--2--2--|
--0--0--0--0--0--0--0--0--|--2--2--2--2--2--2--2----|--0--0--0--0--0--0--0--0--|
--------------------------|-------------------------|--------------------------|


  PM PM PM PM PM PM PM
  A chord diagramE MajorE  A chord diagramE MajorE  A chord diagramE MajorE  A chord diagramE MajorE  A chord diagramE MajorE  A chord diagramE MajorE  Q       W                   W
-------------------------|-------------------|-------------------|
--0--0--0--0--0--0--0----|-------------------|-------------------|
--1--1--1--1--1--2--1----|-------------------|-------------------|
--2--2--2--2--2--2--2----|-------------------|-------------------|
--2--2--2--2--2--2--2----|-------------------|-------------------|
-------------------------|-------------------|-------------------|


  W                   W                   W                   W
-------------------|-------------------|-------------------|-------------------|
-------------------|-------------------|-------------------|-------------------|
-------------------|-------------------|-------------------|-------------------|
-------------------|-------------------|-------------------|-------------------|
-------------------|-------------------|-------------------|-------------------|
-------------------|-------------------|-------------------|-------------------|


  Q.     A chord diagramE MajorE  Q.     A chord diagramE MajorE     Q.     A chord diagramE MajorE  Q.     A chord diagramE MajorE     Q.     A chord diagramE MajorE  Q.     A chord diagramE MajorE
--5------4--5------4--|--5------4--5------4--|--5------4--5------4--|
--5------4--5------4--|--5------4--5------4--|--5------4--5------4--|
--6------5--6------5--|--6------5--6------5--|--6------5--6------5--|
--7------6--7------6--|--7------6--7------6--|--7------6--7------6--|
--7------6--7------6--|--7------6--7------6--|--7------6--7------6--|
--5------4--5------4--|--5------4--5------4--|--5------4--5------4--|


  A chord diagramE MajorE  A chord diagramE MajorE  A chord diagramE MajorE  A chord diagramE MajorE  A chord diagramE MajorE  A chord diagramE MajorE  A chord diagramE MajorE  A chord diagramE MajorE     A chord diagramE MajorE  A chord diagramE MajorE  Q    H
--5--5--5--5--5--5--5--5--|--5-------------------||
--5--5--5--5--5--5--5--5--|--5-------------------||
--6--6--6--6--6--6--6--6--|--6-------------------||
--7--7--7--7--7--7--7--7--|--7-------------------||
--7--7--7--7--7--7--7--7--|--7-------------------||
--5--5--5--5--5--5--5--5--|--5-------------------||


Duration 🏷Legend
---------------
W - whole
H - half
Q - quarter
A chord diagramE MajorE - 8th
S - 16th
T - 32nd
X - 64th
. - note dotted
|-n-|  - n-tuplets

Almost there ...

Sign in to get your own page with links to favourite songs and more. You are just one click away...

Login with Facebook Login with Google