Log in

One click and you are in

Login with Facebook Login with Google

Why sign up and log in

Guitar Tabs Explorer
The Unicorns bass tabs for I was born a unicorn

I Was Born A Unicorn bass tab by The Unicorns

The Unicorns bass tabs for I was born a unicorn

Bass tabs

Intro: starts after guitar has played twice.

G-----------------------------------------------------------------------|
D-----------------------------------------------------------------------|
A-----------4-4-6-6----------4--4--6----------4-4--6---------4-4-6-6----|
E--1--4--4-4-----------4--4-4-----------4--4-4---------4--4-4-----------|

After "You would wait for me..." and "I could have sworn you believed in me..."

G-----------|
D-----------|
A-----------|
E--4-4-4-4--|

"Then how come all the other unicorns are dead..."

G--------------------------------------------------|
D--------------------------------------------------|
A--------------------------------------------------|
E--4--3-4--3-4--3-4--3-4--3-4--3-4-4-4-4-4-4-4-4---|

"We're never gonna stop..."

G---------------------------------------------------|
D---------------------------------------------------|
A---------4-4-6-6--4-4------------4-4-6-6--4-4------|   x2
E---4--4-4-------------6-6--4--4-4-------------6-4--|

Right before "put your chrystals..."

G-----------|
D-----------|
A-----------|
E--4-4-4-4--|

"It also says..."

G------------------------------------------------|
D------------------------------------------------|
A------------------------------------------------|
E--4-----4-----4-----4-----4-----4-----4-----4---|

After "Alive and sure..."

G--------------------------------------|
D--------------------------------------|
A-------------------6-6-6-6-6-6-6-6----|  x8
E---4-4-4-4-4-4-4-4--------------------|

"We're the unicorns and we're people too..." (start when Ginger says "too")

G--------------------------------------------------|
D--------------------------------------------------|
A--------------------------------------------------|
E--4--3-4--3-4--3-4--3-4--3-4--3-4-4-4-4-4-4-4-4---|

Almost there ...

Sign in to get your own page with links to favourite songs and more. You are just one click away...

Login with Facebook Login with Google