Log in

One click and you are in

Login with Facebook Login with Google

Why sign up and log in

Guitar Tabs Explorer
Carrie Underwood bass tabs for Cowboy casanova

Cowboy Casanova bass tab by Carrie Underwood

Carrie Underwood bass tabs for Cowboy casanova

Bass tabs

🎸 Intro:

G|--------------|
D|--------------|
A|------3-3-3-1-|
D|-0-3----------| x3

🎸 Verse 1:

G|--------------|   G|--------------|
D|--------------|   D|--------------|
A|------3-3-3-1-|   A|--------------|
D|-0-3----------| x3 D|-0------------|

G|--------------|   G|--------------|
D|--------------|   D|--------------|
A|------3-3-3-1-|   A|-0-3----------|
D|-0-3----------| x3 D|--------------|

🎸 Chorus:

G|---------------------------------|
D|---------------------------------|
A|-----------------1-1-1-1-0-0-0-0-|
D|-0-0-2-2-3-3-3-3-----------------| x2

G|---------------------------------------------|
D|---------------------------------------------|
A|-------------------------0-0-0-0-1-1-1-1-3-3-|
D|-0-0-2-2-3-3-3-3-5-5-5-5---------------------|

Pre-🎸 Verse:

G|--------------|
D|--------------|
A|------3-3-3-1-|
D|-0-3----------| x3

🎸 Verse 2:

G|--------------|   G|--------------|
D|--------------|   D|--------------|
A|------3-3-3-1-|   A|--------------|
D|-0-3----------| x3 D|-3-1----------|

G|--------------|   G|--------------|
D|--------------|   D|--------------|
A|------3-3-3-1-|   A|-0-3----------|
D|-0-3----------| x3 D|--------------|

🎸 Chorus:

G|---------------------------------|
D|---------------------------------|
A|-----------------1-1-1-1-0-0-0-0-|
D|-0-0-2-2-3-3-3-3-----------------| x2

G|---------------------------------------------|
D|---------------------------------------------|
A|-------------------------0-0-0-0-1-1-1-1-3-3-|
D|-0-0-2-2-3-3-3-3-5-5-5-5---------------------|

REST x16

🎸 Bridge:

G|-----------------|
D|-----------------|
A|-----------------|
D|-0-0-0-0-0-0-0-0-|

G|-----------------------------------------------------------------|
D|-----------------------------------------------------------------|
A|-5-5-5-5-5-5-5-5-3-3-3-3-3-3-3-3-2-2-2-2-2-2-2-2-0-0-0-0-0-0-0-0-|
D|-----------------------------------------------------------------| x2


🎸 Chorus:

G|---------------------------------|
D|---------------------------------|
A|-----------------1-1-1-1-0-0-0-0-|
D|-REST----3-3-3-3-----------------| x2

G|---------------------------------------------|
D|---------------------------------------------|
A|-------------------------0-0-0-0-1-1-1-1-3-3-|
D|-0-0-2-2-3-3-3-3-5-5-5-5---------------------|


🎸 Outro:

G|--------------|   G|--------------|
D|--------------|   D|--------------|
A|------3-3-3-1-|   A|--------------|
D|-0-3----------| x3 D|-0-0----------|

Almost there ...

Sign in to get your own page with links to favourite songs and more. You are just one click away...

Login with Facebook Login with Google