Log in

One click and you are in

Login with Facebook Login with Google

Why sign up and log in

Guitar Tabs Explorer
The Undertones bass tabs for Wednesday week

Bass tabs

Tuning: Standard


VERSE 1
G |-----------------------|-----------------------|-----------------------|-------------------------|
D |-3---3-3-3---2---2-2-2-|-----------------------|-1---1-1-1-------------|-------------------------|
A |-----------------------|-1---1-1-1---3---3-3-3-|-------------1---1-1-1-|-3---3-3-3---3---3-3-3---|
E |-----------------------|-----------------------|-----------------------|-------------------------|

G |-----------------------|-----------------------|-----------------------|-------------------------|
D |-3---3-3-3---2---2-2-2-|-----------------------|-1---1-1-1-------------|-------------------------|
A |-----------------------|-1---1-1-1---3---3-3-3-|-------------1---1-1-1-|-3---3-3-3---3---3-3-3---|
E |-----------------------|-----------------------|-----------------------|-------------------------|

G |---------5-7-5---|-------------|-5-5-7-7-9---10--|-----------------|
D |-------5---------|---------2---|-----------------|-----------------|
A |-3-3-------------|-3-3---5---3-|-----------------|-----------------|
E |-----------------|-------------|-----------------|-----------------|


VERSE 2
G |-----------------------|-----------------------|-----------------------|-------------------------|
D |-3---3-3-3---2---2-2-2-|-----------------------|-1---1-1-1-------------|-------------------------|
A |-----------------------|-1---1-1-1---3---3-3-3-|-------------1---1-1-1-|-3---3-3-3---3---3-3-3---|
E |-----------------------|-----------------------|-----------------------|-------------------------|

G |-----------------------|-----------------------|-----------------------|-------------------------|
D |-3---3-3-3---2---2-2-2-|-----------------------|-1---1-1-1-------------|-------------------------|
A |-----------------------|-1---1-1-1---3---3-3-3-|-------------1---1-1-1-|-3---3-3-3---3---3-3-3---|
E |-----------------------|-----------------------|-----------------------|-------------------------|

G |---------5-7-5---|-------------|-5-5-7-7-9---10--|-------------------------------------------|
D |-------5---------|---------2---|-----------------|-------------------------------------------|
A |-3-3-------------|-3-3---5---3-|-----------------|-------------------------------------------|
E |-----------------|-------------|-----------------|-------------------------------------------|

MUSIC BIT
G |-----------------------|-----------------------|-----------------------|-------------------------|
D |-3---3-3-3---2---2-2-2-|-----------------------|-1---1-1-1-------------|-------------------------|
A |-----------------------|-1---1-1-1---3---3-3-3-|-------------1---1-1-1-|-3---3-3-3---3---3-3-3---|
E |-----------------------|-----------------------|-----------------------|-------------------------|

G |-----------------------|-----------------------|-----------------------|-------------------------|
D |-3---3-3-3---2---2-2-2-|-----------------------|-1---1-1-1-------------|-------------------------|
A |-----------------------|-1---1-1-1---3---3-3-3-|-------------1---1-1-1-|-3---3-3-3---3---3-3-3---|
E |-----------------------|-----------------------|-----------------------|-------------------------|

G |---------5-7-5---|-------------|-5-5-7-7-9---10--|-----------------|
D |-------5---------|---------2---|-----------------|-----------------|
A |-3-3-------------|-3-3---5---3-|-----------------|-----------------|
E |-----------------|-------------|-----------------|-----------------|


VERSE 3
G |-----------------------|-----------------------|-----------------------|-------------------------|
D |-3---3-3-3---2---2-2-2-|-----------------------|-1---1-1-1-------------|-------------------------|
A |-----------------------|-1---1-1-1---3---3-3-3-|-------------1---1-1-1-|-3---3-3-3---3---3-3-3---|
E |-----------------------|-----------------------|-----------------------|-------------------------|

G |---------5-7-5---|-------------|-5-5-7-7-9---10--|-----------------|
D |-------5---------|---------2---|-----------------|-----------------|
A |-3-3-------------|-3-3---5---3-|-----------------|-----------------|
E |-----------------|-------------|-----------------|-----------------|

Almost there ...

Sign in to get your own page with links to favourite songs and more. You are just one click away...

Login with Facebook Login with Google