Log in

One click and you are in

Login with Facebook Login with Google

Why sign up and log in

Guitar Tabs Explorer
The Undertones guitar chords for Teenage kicks ukulele

Teenage Kicks Ukulele chords by The Undertones

The Undertones guitar chords for Teenage kicks ukulele

Guitar chords with lyrics

Tuning: G C E A (G C E A)


Chords
 D  Db Bm A  G  G#
|-10--9---7---5---3---4--|
|-10--9---7---5---3---4--|
|-11--10--7---6---4---5--|
|-12--11--9---7---5---6--|
|-12--11--9---7---5---6--|
|-10--9---7---5---3---4--|
intro  D  Db  Bm Db  (x2)


Verse 1
D                Db
a teenage dream's so hard to beat
Bm                 Db
every time she walks down the street
D                Db
another girl in the neighborhood
Bm                 A
wish she was mine, she looks so good


Chorus
G                 G#
i wanna hold, wanna hold her tight
A                     D
and get teenage kicks all through the night


Verse 2
i'm gonna call her on the telephone
have her over 'cos i'm all alone
i need excitement, though i need it bad
and it's the best i've ever had


chorus


solo  D  Db  Bm  Db   (x2)

repeat verse 1, chorus, verse 2, chorus


solo(x2)
 D            Db Bm        (Db-1st time, A-2nd)
|---------------------------------------------------|
|---------------------------------------------------|
|-------------12(14)---(12)------------9(11)---(9)--|
|----------12--------------12--------9------------9-|
|-------12-------------------------9----------------|
|-10-10------------------------7-7------------------|


chorus


Outro  D  G  A  D

Almost there ...

Sign in to get your own page with links to favourite songs and more. You are just one click away...

Login with Facebook Login with Google