Log in

One click and you are in

Login with Facebook Login with Google

Why sign up and log in

Guitar Tabs Explorer
The Undertones guitar tabs for Teenage kicks

Guitar tabs with lyrics

UNDERTONES

	              TEENAGE KICKS


NOTES: 	The song opens with the drums, so the guitar part starts from the
	second bar. I've writen the chords in TAB, and the time values
	(rhythem) above the tab. The song is quite easy to play.
	I haven't transcribed the solos but the A chord diagramD#D# blues scale should do
	for both. Distortion is essential.



INTRO:

    A chord diagramD#D#					      		   A chord diagramD MajorD       A chord diagramC majorC
      __________     _________          ___________     ___________
 /   |      |   |   | 	  |   |        |   |   |   |   |   |   |   |
||-- 6 ----------------------------|----------------------- 5 ----- 3 --|
||-- 8 ----------------------------|----------------------- 7 ----- 5 --|
||-- 8 ----------------------------|----------------------- 7 ----- 5 --|
||-- 8 ----------------------------|----------------------- 7 ----- 5 --|
||-- 6 ----------------------------|----------------------- 5 ----- 3 --|
||-- 6 ----------------------------|----------------------- 5 ----- 3 --|
 \

    A chord diagramC majorC							   A chord diagramD MajorD       A chord diagramD#D#
     __________     __________          ___________     ___________
    |      |   |   | 	  |   |        |   |   |   |   |   |   |   |   \
|-- 3 ----------------------------|----------------------- 5 ----- 6 --||
|-- 5 ----------------------------|----------------------- 7 ----- 8 --||
|-- 5 ----------------------------|----------------------- 7 ----- 8 --||
|-- 5 ----------------------------|----------------------- 7 ----- 8 --||
|-- 3 ----------------------------|----------------------- 5 ----- 6 --||
|-- 3 ----------------------------|----------------------- 5 ----- 6 --||
								       /



VERSE I:

	A chord diagramA augmentedA teenage dream's ....

    A chord diagramD#D#					      		   A chord diagramD MajorD       A chord diagramC majorC
     __________     __________          ___________     ___________
    |      |   |   | 	  |   |        |   |   |   |   |   |   |   |
|-- 6 ----------------------------|----------------------- 5 ----- 3 --|
|-- 8 ----------------------------|----------------------- 7 ----- 5 --|
|-- 8 ----------------------------|----------------------- 7 ----- 5 --|
|-- 8 ----------------------------|----------------------- 7 ----- 5 --|
|-- 6 ----------------------------|----------------------- 5 ----- 3 --|
|-- 6 ----------------------------|----------------------- 5 ----- 3 --|


	Everytime she walks ...

    A chord diagramC majorC							   A chord diagramD MajorD       A chord diagramD#D#
     __________     __________          ___________     ___________
    |      |   |   | 	  |   |        |   |   |   |   |   |   |   |
|-- 3 ----------------------------|----------------------- 5 ----- 6 --|
|-- 5 ----------------------------|----------------------- 7 ----- 8 --|
|-- 5 ----------------------------|----------------------- 7 ----- 8 --|
|-- 5 ----------------------------|----------------------- 7 ----- 8 --|
|-- 3 ----------------------------|----------------------- 5 ----- 6 --|
|-- 3 ----------------------------|----------------------- 5 ----- 6 --|


	Another girl in ...

     A chord diagramD#D#							   A chord diagramD MajorD       A chord diagramC majorC
     __________     __________          ___________     ___________
    |      |   |   | 	  |   |        |   |   |   |   |   |   |   |
|-- 6 ----------------------------|----------------------- 5 ----- 3 --|
|-- 8 ----------------------------|----------------------- 7 ----- 5 --|
|-- 8 ----------------------------|----------------------- 7 ----- 5 --|
|-- 8 ----------------------------|----------------------- 7 ----- 5 --|
|-- 6 ----------------------------|----------------------- 5 ----- 3 --|
|-- 6 ----------------------------|----------------------- 5 ----- 3 --|

	Wish she was mine, ...

    A chord diagramC majorC							   A chord diagramA#A#      A chord diagramG#G#
     __________     __________          ___________     ___________
    |      |   |   | 	  |   |        |   |   |   |   |   |   |   |
|-- 3 ----------------------------|----------------------- 6 ----- 4 ----|
|-- 5 ----------------------------|----------------------- 6 ----- 4 ----|
|-- 5 ----------------------------|----------------------- 7 ----- 5 ----|
|-- 5 ----------------------------|----------------------- 8 ----- 6 ----|
|-- 3 ----------------------------|----------------------- 8 ----- 6 ----|
|-- 3 ----------------------------|----------------------- 6 ----- 4 ----|





CHORUS:

	I wanna hold her wanna ...

    A chord diagramG#G#                                                            A chord diagramA augmentedA
     ___________     ___________       ___________     ___________
    |	|   |   |   |   |   |   |     |   |   |   |   |   |   |   |
|-- 4 ----------------------------|------------------------------ 5 ----|
|-- 4 ----------------------------|------------------------------ 5 ----|
|-- 5 ----------------------------|------------------------------ 6 ----|
|-- 6 ----------------------------|------------------------------ 7 ----|
|-- 6 ----------------------------|------------------------------ 7 ----|
|-- 4 ----------------------------|------------------------------ 5 ----|


    teenage kicks right ...

    A chord diagramA#A#                                                A chord diagramC majorC       A chord diagramD MajorD
     ___________     ___________       ___________     ___________
    |   |   |   |   |   |   |   |     |   |   |   |   |   |   |   |

|-- 6 ----------------------------|------------------ 3 ----- 5 --------|
|-- 6 ----------------------------|------------------ 5 ----- 7 --------|
|-- 7 ----------------------------|------------------ 5 ----- 7 --------|
|-- 8 ----------------------------|------------------ 5 ----- 7 --------|
|-- 8 ----------------------------|------------------ 3 ----- 5 --------|
|-- 6 ----------------------------|------------------ 3 ----- 5 --------|





VERSE II :   like VERSE I

	I'm gonna call her on ...




CHORUS
	I wanna hold her wanna .....


SOLO I: On the VERSE rythem and chords


VERSE I


CHORUS


VERSE II


CHORUS


SOLO II: On the VERSE rythem and chords



ENDING

    A chord diagramD#D#              A chord diagramC majorC                   A chord diagramA#A#          A chord diagramD#D#
     ___________     ___________         _______
    |	|   |   |   |   |   |   |       |   |   |   |
|-- 6 ------------- 3 --------------|-- 6 --------- 6 ^^^^^^^^ -----------|
|-- 8 ------------- 5 --------------|-- 6 --------- 8 ^^^^^^^^ -----------|
|-- 8 ------------- 5 --------------|-- 7 --------- 8 ^^^^^^^^ -----------|
|-- 8 ------------- 5 --------------|-- 8 --------- 8 ^^^^^^^^ -----------|
|-- 6 ------------- 3 --------------|-- 8 --------- 6 ^^^^^^^^ -----------|
|-- 6 ------------- 3 --------------|-- 6 --------- 6 ^^^^^^^^ -----------|


Notes: This the solo at the end of the track, really easy just two bends,
repeat until the end. The first little part is the rhythm part I play it
to keep time though not essential...

-----3---3--3--------------------------------------------------------------
-----3---3--3--------------------------------------------------------------
-5---5---5--5---9b(11)-(11)-(11)-(11)--(11)r9-7----------------------------
-5-------------------------------------------------------------------------
-3-------------------------------------------------------------------------
-3-------------------------------------------------------------------------

-----6---6--6--------------------------------------------------------------
-----6---6--6--------------------------------------------------------------
-8---8---8--8--------------------------------------------------------------
-8--------------10b(12)-(12)-(12)-(12)--(12)r10-8~~------------------------
-6-------------------------------------------------------------------------
-6-------------------------------------------------------------------------

Questions/Comments to <neil@alderwasley.demon.co.uk>... :^)

Other versions of Teenage Kicks

Teenage kicksChords
Teenage kicks (Ver. 2)Chords
Teenage kicks ukuleleChords

Almost there ...

Sign in to get your own page with links to favourite songs and more. You are just one click away...

Login with Facebook Login with Google