Log in

One click and you are in

Login with Facebook Login with Google

Why sign up and log in

Guitar Tabs Explorer
The Undertones bass tabs for Shes a runaround

She's A Runaround bass tab by The Undertones

The Undertones bass tabs for Shes a runaround

Bass tabs

[Intro]
G|-----------------|-----------------|-----------------|-----------------|
D|-----------------|-5-5-5-5-5-5-5-5-|-----------------|-5-5-5-5-5-5-5-5-|
A|-5-5-5-5-5-5-5-5-|-----------------|-5-5-5-5-5-5-5-5-|-----------------|
E|-----------------|-----------------|-----------------|-----------------|
[Verse 1]
G|-----------------|----------------|-----------------|-----------------| (x2)
D|-----------------|-5-5-5-7--7-7-7-|-----------------|-7-7-7-7-7-7-7-7-|
A|-5-5-5-5-5-5-5-5-|----------------|-5-5-5-5-5-5-5-5-|-----------------|
E|-----------------|----------------|-----------------|-----------------|


[Chorus]
G|-----------------|-----------------|-----------------|-----------------|
D|-----------------|-5-5-5-5-5-7-7-7-|-----------------|-5-5-5-5-5-7-7-7-|
A|-5-5-5-5-5-5-5-5-|-----------------|-5-5-5-5-5-5-5-5-|-----------------|
E|-----------------|-----------------|-----------------|-----------------|

G|-----------------|-----------------|-----------------|----------------|
D|-----------------|-5-5-5-5-5-7-7-7-|-----------------|----------------|
A|-5-5-5-5-5-5-5-5-|-----------------|-5-5-5-5-5-5-5-5-|-3-3-3----------|
E|-----------------|-----------------|-----------------|-------5--5-5-5-|

G|-----------------|----------------|
D|-----------------|-----2----------|
A|-5-5-5-5-5-5-5-5-|-3-3---0--0-0-0-|
E|-----------------|----------------|


[Verse 2]
G|-----------------|----------------|-----------------|-----------------| (x2)
D|-----------------|-5-5-5-7--7-7-7-|-----------------|-7-7-7-7-7-7-7-7-|
A|-5-5-5-5-5-5-5-5-|----------------|-5-5-5-5-5-5-5-5-|-----------------|
E|-----------------|----------------|-----------------|-----------------|

[Chorus]
G|-----------------|-----------------|-----------------|-----------------|
D|-----------------|-5-5-5-5-5-7-7-7-|-----------------|-5-5-5-5-5-7-7-7-|
A|-5-5-5-5-5-5-5-5-|-----------------|-5-5-5-5-5-5-5-5-|-----------------|
E|-----------------|-----------------|-----------------|-----------------|

G|-----------------|-----------------|-----------------|----------------|
D|-----------------|-5-5-5-5-5-7-7-7-|-----------------|----------------|
A|-5-5-5-5-5-5-5-5-|-----------------|-5-5-5-5-5-5-5-5-|-3-3-3----------|
E|-----------------|-----------------|-----------------|-------5--5-5-5-|

G|-----------------|----------------|
D|-----------------|-----2----------|
A|-5-5-5-5-5-5-5-5-|-3-3---0--0-0-0-|
E|-----------------|----------------|


[Instrumental]
G|-----------------|-----------------|-----------------|-----------------|
D|-----------------|-----------------|-----------------|-----------------|
A|-3-3-3-3-3-3-3-3-|-----------------|-3-3-3-3-3-3-3-3-|-----------------|
E|-----------------|-5-5-5-5-5-5-5-5-|-----------------|-5-5-5-5-5-5-5-5-|

G|-----------------|-----------------|-----------------|----------------|
D|-----------------|-----------------|-7-7-7-7-7-7-7-7-|-7--------------|
A|-3-3-3-3-3-3-3-3-|-5-5-5-5-5-5-5-5-|-----------------|----------------|
E|-----------------|-----------------|-----------------|----------------|

[Interlude]
G|-----------------|-----------------|-----------------|-----------------|
D|-----------------|-5-5-5-5-5-5-5-5-|-----------------|-5-5-5-5-5-5-5-5-|
A|-5-5-5-5-5-5-5-5-|-----------------|-5-5-5-5-5-5-5-5-|-----------------|
E|-----------------|-----------------|-----------------|-----------------|


[Verse 3]
G|-----------------|----------------|-----------------|-----------------| (x2)
D|-----------------|-5-5-5-7--7-7-7-|-----------------|-7-7-7-7-7-7-7-7-|
A|-5-5-5-5-5-5-5-5-|----------------|-5-5-5-5-5-5-5-5-|-----------------|
E|-----------------|----------------|-----------------|-----------------|


[Chorus]
G|-----------------|-----------------|-----------------|-----------------|
D|-----------------|-5-5-5-5-5-7-7-7-|-----------------|-5-5-5-5-5-7-7-7-|
A|-5-5-5-5-5-5-5-5-|-----------------|-5-5-5-5-5-5-5-5-|-----------------|
E|-----------------|-----------------|-----------------|-----------------|

G|-----------------|-----------------|-----------------|----------------|
D|-----------------|-5-5-5-5-5-7-7-7-|-----------------|----------------|
A|-5-5-5-5-5-5-5-5-|-----------------|-5-5-5-5-5-5-5-5-|-3-3-3----------|
E|-----------------|-----------------|-----------------|-------5--5-5-5-|


[Outro]
G|-----------------|----------------| (x2)
D|-----------------|----------------|
A|-5-5-5-5-5-5-5-5-|-3-3-3----------|
E|-----------------|-------5--5-5-5-|

G|-----------------|----|-----|
D|-----------------|----|-----|
A|-5-5-5-5-5-5-5-5-|-3--|-----|

Almost there ...

Sign in to get your own page with links to favourite songs and more. You are just one click away...

Login with Facebook Login with Google