Log in

One click and you are in

Login with Facebook Login with Google

Why sign up and log in

Guitar Tabs Explorer
The Undertones guitar tabs for Shes a run around

Guitar tabs

Song - She's A chord diagramA augmentedA Run Around
Album - Undertones
Tabbed By: SumFX (Tyler Freear)

Cool Riffs And Overall Awesome Song!

. = Palm Mute
/ = Slide
Intro
|-----------------------|
|-----------------------|
|-----------------------|
|-----------------------|
|-9-9-9/7-5----2-----4--|
|------------3---3-5----|


Verse
|-----------------------------|--------------------|
|-----------------------------|--------------------|
|-77777777--------------------|-77777777-----------|
|-77777777-55555555-77777777--|-77777777-77777777--|
|-55555555-55555555-77777777--|-55555555-77777777--|
|----------33333333-55555555--|----------55555555--|
  ........ ........ ........    ........ ........


Chorus
|--------x3-------------|---------------|
|-----------------------|---------------|
|-----------------------|---------------|
|-----------------------|---------------|
|-9-9-9/7-5----2-----4--|-9-9-9/7-5-3-0-|
|------------3---3-5----|---------------|

Post Chorus
|-------------------------------|
|-------------------------------|
|-------------------------------|
|---7---7---7---7----5---5---7--|
|-5---5---5---5----3---3-----7--|
|----------------------------5--|

Solo
|--------------------------|
|-5--5--5--5--5--5--5--5---|
|-7b-7b-7b-7b-7b-7b-7b-7b--|
|--------------------------|
|--------------------------|
|--------------------------|


Outro
|---------------------------|
|---------------------------|
|------------------5--------|
|---7---7---7---7--5-----7--|
|-5---5---5---5----3-----7--|
|------------------------5--|


Structure


Intro

Verse

Chorus
Post Chorus

Verse

Chorus
Post Chorus

Solo

Intro

Verse

Chorus
Post Chorus

Outro

There Ya Go! Easy!

Almost there ...

Sign in to get your own page with links to favourite songs and more. You are just one click away...

Login with Facebook Login with Google