Log in

One click and you are in

Login with Facebook Login with Google

Why sign up and log in

Guitar Tabs Explorer
Underneath The Gun tabs for Cutting ties breathing lies

Cutting Ties Breathing Lies tab by Underneath The Gun

Underneath The Gun tabs for Cutting ties breathing lies

Guitar tabs

just guitar 1


riff 1 x2

------------------------------------------------|
------------------------------------------------|
------------------------------------------------|
------------------------------------------------|
585-5--------------585-5---8-8-7----------------|
---8-85-00-000-000----8-850-0-0-0----x2---------|

------------------------------------------------|
------------------------------------------------|
------------------------------------------------|
------------------------------------------------|
12-12-12-12-12-12-10-10-10-13-13-13-12-10-------|
-8-8-8-8-8-8-8-8-8-8-8-8-8-8-8-8-8-8-8-8-8--x2--|

breakdown 1 x4

------------------------------------------------|
------------------------------------------------|
------------------------------------------------|
------------------------------------------------|
00-00-00-00-00-000-00---------------------------|
11-11-11-11-11-111-11---------------------------|

transition thing x1

------------------------------------------------|
------------------------------------------------|
------------------------------------------------|
------------------------------------------------|
5875--5-----------------------------------------|
----85------------------------------------------|

riff 2 (all tremelo) x4

------------------------------------------------|
------------------------------------------------|
------------------------------------------------|
------------------------------------------------|
5-8-7-8-12-8-7-8---8-7-8---4-5------------------|
-----------------8-------5----------------------|

repeat riff 1


bridge (didnt figure out)


ending breakdown x2 pal mute, x4 open

------------------------------------------------|
------------------------------------------------|
------------------------------------------------|
------------------------------------------------|
00-00--00-00--00-00-0-00-00---------------------|
11-11--11-11--11-11-1-11-11---------------------|

tremelo picking at the end of breakdown 2

------------------------------------------------|
------------------------------------------------|
------------------------------------------------|
------------------------------------------------|
--5-----------5---------------------------------|

Almost there ...

Sign in to get your own page with links to favourite songs and more. You are just one click away...

Login with Facebook Login with Google