Search tabs and chords

Search for song, artist or band

Log in

One click and you are in

Login with Facebook Login with Google

Why sign up and log in

Guitar Tabs Explorer
Undakava guitar tabs for Lonely

Guitar tabs

LONELY

By: Undakava
Album: Tazama
Lyrics by: fauz Noir
Music by: fauz Noir
I do declare that the tab is all my work. (And the
nice guys on the net who taught me how to write tab)

e|-----------3--|--------------|--------------|
B|--------------|-----4-----4--|-----3--------|
G|--5--5--5-----|--6-----6-----|--6-----4-----|
D|--------------|--------------------------5--|
A|--------------|--------------|--------------|
E|--------------|--------------|--------------|



e|--------------|--------------|--------------|
B|-----------4--|--4--6--4--3--|--3--4--3-----|
G|--5--5--5-----|--------------|-----------5--|
D|--------------|--------------|--------------|
A|--------------|--------------|--------------|
E|--------------|--------------|--------------|


Sometimes, this variation is played.  Toss it in
randomly, or
discover the pattern and tell me.


e|--3--3--3--4--|--6--4-64-----|--------------|
B|--------------|-----------3--|--------------|
G|--------------|--------------|--------------|
D|--------------|--------------|--------------|
A|--------------|--------------|--------------|
E|--------------|--------------|--------------|


e|--------------|--------------|--------------|
B|--4--4--4-----|-----3--4-----|--------------|
G|-----------5--|--4-----------|--------------|
D|--------------|--------------|--------------|
A|--------------|--------------|--------------|
E|--------------|--------------|--------------|


That's it! Let me know if there are any errors.

Almost there ...

Sign in to get your own page with links to favourite songs and more. You are just one click away...

Login with Facebook Login with Google