Search tabs and chords

Search for song, artist or band

Log in

One click and you are in

Login with Facebook Login with Google

Why sign up and log in

Guitar Tabs Explorer
Uncommonmenfrommars guitar tabs for Stuck in the past

Stuck In The Past tab by Uncommonmenfrommars

Uncommonmenfrommars guitar tabs for Stuck in the past

Guitar tabs with lyrics

-------------------------------------------------------------------------------
			     Stuck in the past - Uncommonmenfrommars
-------------------------------------------------------------------------------
Tabbed by:Boby.Chenapan

Tuning: Normal

guitare 1 intro a

e|---------------------------------------------------------------------------|
B|---------------------------------------------------------------------------|
G|---------------------------------------------------------------------------|
D|--7---------------------7------h-p---------------h-p-----------------------|
A|--7---7---7---8--7---5--7--00--0787-5--7-788--00-0787-5-7-788--------------|
E|--5-------5------5------5----------8-----------------8---------------------|

guitare 2 intro a
e|---------------------------------------------------------------------------|
B|---------------------------------------------------------------------------|
G|---------------------------------------------------------------------------|
D|--------------------------------------------------h-p----------------------|
A|----------------------------------------------00-023202-3-355--------------|
E|---------------------------------------------------------------------------|
guitare 1 intro b
e|---------------------------------------------------------------------------|
B|---------------------------------------------------------------------------|
G|---------------------------------------------------------------------------|
D|-------------------------------------------------77---77777--7---9-91010---|
A|--00--0787-5--00-0787-5--00--0787-5--00--0787-5--77---77777--7---7-78-8----|
E|----------8----------8-----------8-----------8---55---55555--5-------------|
guitare 2 intro b                                       xxxxx

e|---------------------------------------------------------------------------|
B|---------------------------------------------------------------------------|
G|--------------5---------10-----------9-------------------------------------|
D|--7-----------5---------10-----------9-----------77---77777--7-------------|
A|--7-----------3----------8-----------7-----------77---77777--7-------------|
E|--5----------------------------------------------55---55555--5-------------|
    *           *         *            *                xxxxx


guitare 1 & 2 riff 1 :"what you gonna do the day you fall"
e|---------------------------------------------------3-----------------------|
B|---------------------------------------------------3-----------------------|
G|------5---7---10---9---------5---5-------7---------4-----------------------|
D|--7---5---7---10---9-----7---5---5---3---7----7----5---3---2-77-77777-7-777|
A|--7---3---5---8----7-----7---2---3---3---5----7----5---3---2-77-77777-7-777|
E|--5----------------------5-----------1--------5----3---1---0-55-55555-5-555|
    "   "   "   "    "     "   "   "   "   "    *    *   *   *
                                                _____X2_____/

guitare 1
e|---------------------------------------------------------------------------|
B|---------------------------------------------------------------------------|
G|---------------------------------------------------------------------------|
D|----------h-p--------------------------------------------------------------|
A|--000--00-0787-5-7-788-----------------------------------------------------|
E|--------------8------------------------------------------------------------|
guitare 2
e|---------------------------------------------------------------------------|
B|---------------------------------------------------------------------------|
G|---------------------------------------------------------------------------|
D|-----------h-p-------------------------------------------------------------|
A|--000--00-023202-3-355-----------------------------------------------------|
E|---------------------------------------------------------------------------|

BREAK guitare 1&2 :"No more friends no family"

e|-----------------------------------------3---------------3-----------------|
B|-----------------------------------------3---------------3-----------------|
G|-----------101010------------------------4---------------4-----------------|
D|--7---77---101010--77---5--5--3--7---7---5---3---2---7---5---3---2---------|
A|--7---77---8-8-8---77---2--3--3--5---7---5---3---2---7---5---3---2---------|
E|--5---55-----------55---------1------5---3---1---0---5---3---1---0---------|
    *   xx   x x x   x*   "  "  "  "   *   *   *   *   *   *   *   "


refrain guitare 1 : "Living with your faded memories"
e|---------------------------------------------------------------------------|
B|---------------------------------------------------------------------------|
G|-----7----------5------9---------------5-----------------------------------|X2
D|--7--7--7---5---5---3--9--7---5---3----5-----------------------------------|
A|--7--5--7---5---3---3--7--7---5---3----3-----------------------------------|
E|--5-----5---3-------1-----5---3---1----------------------------------------|
    "                 "  "  "   "   "    "


refrain guitare 2
e|---------------------------------------------------------------------------|
B|---------------------------------------------------------------------------|
G|-----7----------5------9--9---7-4-5-10-9-----------------------------------|X2
D|--7--7--7---5---5---3--x--x---x-x-x-x--x-----------------------------------|
A|--7--5--7---5---3---3--7--7---5-2-3-8--7-----------------------------------|
E|--5-----5---3-------1------------------------------------------------------|
    "                 "  "  "   " " " "  "

guitare 1
e|---------------------------------------------------------------------------|
B|---------------------------------------------------------------------------|
G|---------------------------------------------------------------------------|
D|-77-77777-7-777-----------h-p----------------------------------------------|
A|-77-77777-7777--000--00-0787-5-7-788---------------------------------------|
E|-55-55555-5-555-------------8----------------------------------------------|

guitare
e|---------------------------------------------------------------------------|
B|---------------------------------------------------------------------------|
G|---------------------------------------------------------------------------|
D|-77-77777-7-777-----------h-p----------------------------------------------|
A|-77-77777-7-777--000--00-023202-3-355--------------------------------------|
E|-55-55555-5-555------------------------------------------------------------|

guitare 1 > solo > solo
e|---------------------------------------------------------------------------|
B|--------5-8-5-6-5----------------------------------------------------------|
G|-7b--7b-----------7-5-----99--9-1010--1055-577-----------------------------|
D|----------------------7-5-xx--x-x-x---x-xx-xxx-----------------------------|
A|--------------------------77--7-8-8---8-33-355-----------------------------|
E|---------------------------------------------------------------------------|

e|-------0-5-0-7-0-8-0-10-0-8-0-10-0-10b--8-7-7-8/7-5------------------------|
B|---5------------------------------------------------6----------------------|
G|---7b----------------------------------------------------------------------|
D|---------------------------------------------------------------------------|
A|---------------------------------------------------------------------------|
E|---------------------------------------------------------------------------|

e|--------------------------------------------44-55--------------------------|
B|-----------------------------------33-55-66--------------------------------|
G|--------------------------22-44-55-----------------------------------------|
D|-----------------33-22-----------------------------------------------------|
A|--00-33-22----00-------33--------------------------------------------------|
E|-----------33--------------------------------------------------------------|
    xx xx xx xx xx

e|-0-12-0-10-0-8-0-7-0-8-0-10-0-7-0-8------8-----10------12~-----------------|
B|-------------------------------------5/6---6/8----8/10---------------------|
G|---------------------------------------------------------------------------|
D|-----------------------------------------------------------320---02--------|
A|--------------------------------------------------------------320----------|
E|---------------------------------------------------------------------------|



guitare 2 > solo rythmic

e|----------------------------0--3--------0--3-------------------------------|
B|----------------------------0--3--------0--3-------------------------------|
G|----------------------------2--4--------2--4-------------------------------|
D|-7--5--7--3--4--7--5-4-3-7--2--5--3--2--2--5--3--2-2-----------------------|
A|-7--3--5--3--2--7--2-2-3-5--0--5--3--2--0--5--3--2-2-----------------------|
E|-5--------1-----5------1-------3--1--0-----3--1--0-0-----------------------|
   "  "  "  "  "  x  " " " "  *  *  *  *  *  *  *  x "
                  "                                "

refrain guitare 1 : "Living with your faded memories"
e|---------------------------------------------------------------------------|
B|---------------------------------------------------------------------------|
G|-----7----------5------9---------------5-----------------------------------|X2
D|--7--7--7---5---5---3--9--7---5---3----5-----------------------------------|
A|--7--5--7---5---3---3--7--7---5---3----3-----------------------------------|
E|--5-----5---3-------1-----5---3---1----------------------------------------|
    "                 "  "  "   "   "    "
refrain guitare 2
e|-----------------------------------|-------------|-------------------------|
B|-----------------------------------|-------------|-------------------------|
G|-----7----------5------9--9---7-4-5|-10-9--------|-------------------------|X2
D|--7--7--7---5---5---3--x--x---x-x-x|-x--x--------|-------------------------|
A|--7--5--7---5---3---3--7--7---5-2-3|-8--7--------|-------------------------|
E|--5-----5---3-------1--------------|-------------|-------------------------|
    "                 "  "  "   " " "| "  "
                                     |only 1st time|

outro

e|---------------------------------------------------------------------------|
B|---------------------------------------------------------------------------|
G|--4--5--10--4--5--10-------------------------------------------------------|
D|--x--x--x---x--x--x----3--5--4--3---77-77777-7-777-777-77777---------------|
A|--2--3--8---2--3--8----3--3--2--1---77-77777-7-777-777-77777---------------|
E|-----------------------1------------55-55555-5-555-555-55555---------------|
    "  "  "   "  "  "
e|---------------------------------------------------------------------------|
B|---------------------------------------------------------------------------|
G|---------------------------------------------------------------------------|
D|--2--3--5---2--3--5----3--5--4--3---77-77777-7-777-777-77777---------------|
A|--2--3--3---2--3--3----3--3--2--1---77-77777-7-777-777-77777---------------|
E|--0--1------0--1-------1------------55-55555-5-555-555-55555---------------|
    x  x      x  x
    "  "  "   "  "  "

What you gonna do the day you fall
The rules are changing and you weren't prepared at all
And now it's over
You can not understand
The world around you
You do not comprehend
And everybody seems to be different
You're so alone now
You are a blind man

No more friends no family
Nobody likes you 'cause you're stuck in the past
And now it's over
You can not understand
The world around you
You do not comprehend
And everybody seems to be different
You're so alone now
You are a blind man

Living with your faded memories
You just can't see
Empty future empty past
You just won't see




| "  play couple of times
| *  let ring
| b  bend
| /  slide up
|   slide down
| h  hammer-on
| p  pull-off
| ~  vibrato
| +  harmonic
| x  Mute note

Almost there ...

Sign in to get your own page with links to favourite songs and more. You are just one click away...

Login with Facebook Login with Google