Log in

One click and you are in

Login with Facebook Login with Google

Why sign up and log in

Guitar Tabs Explorer
Uncle Tupelo guitar tabs for Sandusky

Guitar tabs

Tuning: Drop A chord diagramD MajorD


Repeat this for the whole song. Rhythm is a little weird so each
line here is one measure (hence no bar lines).

*       *       *       *       *       *       *       *       *
e|----------------9b--10b-9---------------------------------------|
B|----------------7---------------7-------------------------------|
G|----------------7-----------------------------------------------|
D|----------------------------------------------------------------|
A|----------------------------------------------------------------|
D|----------------------------------------------------------------|

*       *       *       *       *       *       *       *       *
e|----------------------------------------------------------------|
B|--------10----------10----------10------------------------------|
G|9-h-11------9-h-11------9-h-11----------8-------7---------------|
D|----------------------------------------------------9---7-------|
A|----------------------------------------------------------------|
D|----------------------------------------------------------------|


*       *       *       *       *       *       *       *       *
e|----------------9b--10b-9----------------------------------------|
B|----------------7---------------7--------------------------------|
G|----------------7------------------------------------------------|
D|-----------------------------------------------------------------|
A|0----------------------------------------------------------------|
D|0----------------------------------------------------------------|

 *       *       *       *       *       *       *       *      *
e|-----------------------------------------------------------------|
B|---------10----------10----------10------------------------------|
G|-9-h-11------9-h-11------9-h-11----------8-------7-----------7---|
D|-----------------------------------------------------9---7-------|
A|-----------------------------------------------------------------|
D|-----------------------------------------------------------------|

*       *       *       *       *       *       *       *       *
e|--------7-----------7-----------7-----------7-----------7--------|
B|--------7-----------7-----------7-----------7-----------7--------|
G|9----------------------------------------------------------------|
D|-----------------------------------------------------------------|
A|-----------------------------------------------------------------|
D|-----------------------------------------------------------------|

*       *       *       *       *       *       *       *       *
e|--------7-----------7-----------7-----------7-----------7--------|
B|--------7-----------7-----------7-----------7-----------8--------|
G|9-------9-----------------------9--------------------------------|
D|-----------------------------------------------------------------|
A|-----------------------------------------------------------------|
D|-----------------------------------------------------------------|

*       *       *       *       *       *       *       *       *
e|7-------7-----------7-----------7-----------10----------10-------|
B|8-------8-----------8-----------8-----------8-----------8--------|
G|7-------------------------------7--------------------------------|
D|9-------------------------------9--------------------------------|
A|10------------------------------10-------------------------------|
D|-----------------------------------------------------------------|

*       *       *       *       *       *       *       *       *
e|7-------10----------10----------10----------10----------10-------|
B|8-----------8------------8-----------8-----------8-----------8---|
G|7---------------7------------7----------7------------7-----------|
D|9----------------------------------------------------------------|
A|10--------------------------------------------------------------0|
D|----------------------------------------------------------------0|

************************************

| b  Bend
| h  Hammer-on

↓ Add and view comments below ↓

What do you think about this song and these tabs?

Add your comments, questions, rant or a thumbs up below.

Almost there ...

Sign in to get your own page with links to favourite songs and more. You are just one click away...

Login with Facebook Login with Google