Log in

One click and you are in

Login with Facebook Login with Google

Why sign up and log in

Guitar Tabs Explorer
Uncle Tupelo bass tabs for New madrid

Bass tabs

0:05                 2x                                                 2x
G|-----------------------|------------------------------|----------------|
D|-----------------------|-----------------7------------|----------------|
A|----------7-5-5----7---|---------7---4-5----5-4-2-0---|---7-5-5----7---|
E|-0-2-4-5---------5---5-|-0-2-4-5---2------------------|-5--------5---5-|
  1:07    C'mon do what you do, ...
G|-----------------------|-------------------------------|-------------------------------------------------|
D|-----------------------|------4---4-----7----7----9----|--------------------------4---4----7---9---------|
A|----------7---0-2-4-5--|-4--2---2-----5----5----7----7-|---------7---0-2-4-5--4-2---2----5---7------7----|
E|--0-2-4-5---5----------|-------------------------------|-0-2-4-5---5------------------------------5---5--|


  1:41                                  1:56
G|-------------------------------------|------------------------------------------------|
D|------------0----------------0-------|--------------------7---------------------------|
A|----------------0-------0--------0---|----------7-----4-5----5-4-2-0-----7-5-5----7---|
E|-0-2-4-5-----------------------------|-00-2-4-5----2-------------------5--------5---5-|


  2:12                 2x
G|-----------------------|------------------------------|----------------|
D|-----------------------|-----------------7------------|----------------|
A|----------7-5-5----7---|---------7---4-5----5-4-2-0---|---7-5-5----7---|
E|-0-2-4-5---------5---5-|-0-2-4-5---2------------------|-5--------5---5-|


  2:42    C'mon do what you do, ...
G|-----------------------|-------------------------------|------------------------------------------|
D|-----------------------|------4---4-----7----7----9----|---------------------------4---4----7---9-|
A|----------7---0-2-4-5--|-4--2---2-----5----5----7----7-|---------7---0-2-4-5--4--2---2----5---7---|
E|--0-2-4-5---5----------|-------------------------------|-0-2-4-5---5------------------------------|


 3:14

G|----------------------|
D|------------7---------|
A|---7---4--5----5-7----|
E|-5---2--------------5~|

↓ Add and view comments below ↓

What do you think about this song and these tabs?

Add your comments, questions, rant or a thumbs up below.

Almost there ...

Sign in to get your own page with links to favourite songs and more. You are just one click away...

Login with Facebook Login with Google