Log in

One click and you are in

Login with Facebook Login with Google

Why sign up and log in

Guitar Tabs Explorer
Uncle Lucius guitar tabs for Set ourselves free

Guitar tabs

Alright so I noticed that there aren't any Uncle Lucius tabs anywhere besides Keep The
Wolves Away, so I
have been figuring some out. This is the electric guitar intro to Set Ourselves Free
played with some
moderate distortion. Its also played throughout the majority of the song when the
guitarist isn't soloing
Its pretty simple and badass once you get the rhythm down.

E|--0-3h5----0-0--|
A|--------3-5-----|
D|----------------| played twice
G|----------------|
B|----------------|
e|----------------|

E|--0-3h5------------------0-0--|
A|--------3--------5-3h5-5------|
D|--------------3-- ------------| played once after first 2 riffs
G|------------------------------|
B|------------------------------|

Almost there ...

Sign in to get your own page with links to favourite songs and more. You are just one click away...

Login with Facebook Login with Google