Search tabs and chords

Search for song, artist or band

Log in

One click and you are in

Login with Facebook Login with Google

Why sign up and log in

Guitar Tabs Explorer
Uncle Acid And The Deadbeats guitar tabs for Ritual knife

Ritual Knife tab by Uncle Acid And The Deadbeats

Uncle Acid And The Deadbeats guitar tabs for Ritual knife

Guitar tabs

Tuning: A chord diagramC#C# Tuning (A chord diagramC#C# A chord diagramF#F# A chord diagramBB A chord diagramE MajorE A chord diagramG#G# A chord diagramC#C#)

Difficulty: Novice

Intro:
e|----------------------------------------------------------------------------|
B|----------------------------------------------------------------------------|
G|----------------------------------------------------------------------------|
D|------------6h 4 p6-------------------6h 4 p6-------------------------------|x3
A|-----------------------------------------------------------------7----------|
E|-----4------------------4--------4------------------4-------5---------5-----|

e|----------------------------------------------------------------------------|
B|----------------------------------------------------------------------------|
G|----------------------------------------------------------------------------|
D|------------6h 4 p6-------------------6h 4 p6-------------------------------|
A|-----------------------------------------------------------------7----------|
E|-----4------------------4--------4------------------4-------5----------x\---|

Verse:
e|----------------------------------------------------------------------------|
B|----------------------------------------------------------------------------|
G|----------------------------------------------------------------------------|x4
D|------------6h 4 p6-------------------6h 4 p6-------------------------------|
A|-----------------------------------------------------------------7----------|
E|-----4------------------4--------4------------------4-------5----------5----|

e|----------------------------------------------------------------------------|
B|----------------------------------------------------------------------------|
G|-----------6h 4 p6--------------------6h 4 p6-------------------------------|x2
D|------------------------------------------------------------------7---------|
A|-----4------------------4--------4------------------4-------5-----------5---|
E|----------------------------------------------------------------------------|

e|----------------------------------------------------------------------------|
B|----------------------------------------------------------------------------|
G|----------------------------------------------------------------------------|x2
D|------------6h 4 p6-------------------6h 4 p6-------------------------------|
A|-----------------------------------------------------------------7----------|
E|-----4------------------4--------4------------------4-------5----------5----|

Chorus:
e|---------------------------------------------------------------------------|
B|-----------9---------------------------------------------------------------|
G|--------9-----9---------------6--------------------------------------------|
D|-----9-----------9---------6------------7----9-----------------------------|
A|---7--------------------7-----------9--------------------------------------|
E|---------------------------------------------------------------------------|

e|----------------------------------------------------------------------------|
B|----------------------------------------------------------------------------|
G|----------------------------------------------------------------------------|x2
D|------------6h 4 p6-------------------6h 4 p6-------------------------------|
A|-----------------------------------------------------------------7----------|
E|-----4------------------4--------4------------------4-------5----------5----|

Verse:

Chorus:

Verse:

Chorus:

Bridge:

e|---------------------------------------------------------------------------|
B|---------------------------------------------------------------------------|
G|---------------------------------------------------------------------------|
D|--6---6-p4--6---6--6-p4---6--6---6-p4--6-----------------------------------|
A|--4---4-----4---4--4------4--4---4-----4----7 p6 h7 p6 h7 p6---------------|
E|---------------------------------------------------------------------------|

e|----------------------------------------------------------------------------|
B|----------------------------------------------------------------------------|
G|----------------------------------------------------------------------------|x7
D|--6--6--6--6--6--6--6--6--6-------------------------------------------------|
A|--4--4--4--4--4--4--4--4--4--------7 p6 h7 p6 h7 p6-------------------------|
E|----------------------------------------------------------------------------|

e|---------------------------------------------------------------------------|
B|---------------------------------------------------------------------------|
G|---------------------------------------------------------------------------|x2
D|--7--7--7--7--7--7------6--------------------------------------------------|
A|--5--5--5--5--5--5------4--------------------------------------------------|
E|---------------------------------------------------------------------------|

e|----------------------------------------------------------------------------|
B|----------------------------------------------------------------------------|
G|----------------------------------------------------------------------------|x6
D|--6--6--6--6--6--6--6--6--6-------------------------------------------------|
A|--4--4--4--4--4--4--4--4--4--------7 p6 h7 p6 h7 p6-------------------------|
E|----------------------------------------------------------------------------|

e|---------------------------------------------------------------------------|
B|---------------------------------------------------------------------------|
G|---------------------------------------------------------------------------|x2
D|--7--7--7--7--7--7------6--------------------------------------------------|
A|--5--5--5--5--5--5------4--------------------------------------------------|
E|---------------------------------------------------------------------------|

e|----------------------------------------------------------------------------|
B|----------------------------------------------------------------------------|
G|----------------------------------------------------------------------------|
D|--6--6--6--6--6--6--6--6--6-------------------------------------------------|
A|--4--4--4--4--4--4--4--4--4--------7 p6 h7 p6 h7 p6-------------------------|
E|----------------------------------------------------------------------------|

Solo:
e|---------------------------------------------------------------------------|
B|---------------------------------------------------------------------------|
G|---11----11------------11 p9---------9--11-11--11-------9---11-------------|
D|----------------11\------------11------------------------------------------|
A|---------------------------------------------------------------------------|
E|---------------------------------------------------------------------------|

e|---------------------------------------------------------------------------|
B|---------------------------------------------------------------------------|
G|--11b--11b--11b--11b--11b--11b--11b--11b--11b--11b------11brb--------------|
D|---------------------------------------------------------------------------|
A|---------------------------------------------------------------------------|
E|---------------------------------------------------------------------------|

e|---------------------------------------------------------------------------|
B|---------------------------------------------------------------------------|
G|--11br--9-11------9h 11---9 r8--9 r8 h9 r8---8---9 r8----------------------|
D|--------------------------------------------------------9------------------|
A|---------------------------------------------------------------------------|
E|---------------------------------------------------------------------------|

e|--------------------------------------------------12---12---14---~14b------|
B|-------------------------------12-------12---14----------------------------|
G|----------------------9-11-13------13--------------------------------------|
D|-11-----------9 h11--------------------------------------------------------|
A|------9 h11----------------------------------------------------------------|
E|---------------------------------------------------------------------------|

e|--12 h14-r12 h14 r12 h14 r12 h14 r12 h14 r12--12-14--12----------12--------|
B|----------------------------------------------------------------------14b--|
G|---------------------------------------------------------------------------|
D|-----------------------------------------------------------14--------------|
A|-----------------------------------------------------------16--------------|
E|---------------------------------------------------------------------------|

e|-12--12--------------------------------------------------------------------|
B|---------14 r12------12----12/14----14/16----16/17-------------------------|
G|-----------------13--------------------------------------------------------|
D|---------------------------------------------------------------------------|
A|---------------------------------------------------------------------------|
E|---------------------------------------------------------------------------|

e|------------------------------------------------------------------------------|
B|--16b-~16b--16br 14 r12 h14----14--14--------14--14-------14-q14----------14--|
G|---------------------------------------16b-----------16b----------16br br-----|
D|------------------------------------------------------------------------------|
A|------------------------------------------------------------------------------|
E|------------------------------------------------------------------------------|

e|---------------------------------------------------------------------------|
B|-16--14--------14--16-14-------14--16-14 h16 r 14--------------------------|
G|----------16b-------------16b-----------------------16---------------------|
D|---------------------------------------------------------------------------|
A|---------------------------------------------------------------------------|
E|---------------------------------------------------------------------------|

e|--------------14------------16-17b---17-16-14-16--17-16-14--12 h14 r12 h14--|
B|--14--16--17------16/--16---------------------------------------------------|
G|-----------------------16---------------------------------------------------|
D|----------------------------------------------------------------------------|
A|----------------------------------------------------------------------------|
E|----------------------------------------------------------------------------|

e|-14---14 r12-------12----------------------------------------------------------|
B|--------------14--------14--12--14--12\------12-----12-----12--12------12------|
G|-------------------------------------------13-----13----13--------13------13---|
D|-------------------------------------------------------------------------------|
A|-------------------------------------------------------------------------------|
E|-------------------------------------------------------------------------------|

e|---------------------------------------------------------------------------|
B|-------------------12--12\-x/----------16---16br---16---16-16-16-----------|
G|-13 h14 r13 h14----------------x\------------------------------------------|
D|---------------------------------------------------------------------------|
A|---------------------------------------------------------------------------|
E|---------------------------------------------------------------------------|

e|---------------------------------------------------------------------------|
B|--16----16-16-16-16---16-16b---16---16-16b---16---16br br------------------|
G|---------------------------------------------------------------------------|
D|---------------------------------------------------------------------------|
A|---------------------------------------------------------------------------|
E|---------------------------------------------------------------------------|

e|----------------------------------------------------------------19-----------|
B|--16--16br br---14--14 r12-14 h16------------17------17-------19---------17--|
G|-------------------------------------18--16------18------16/18-------18------|
D|-----------------------------------------------------------------------------|
A|-----------------------------------------------------------------------------|
E|-----------------------------------------------------------------------------|

e|--------------------------------------------19-------|
B|---------17----------17---------17---17b-------------|
G|-16--18------16--18-----16--18-----------------------|
D|-----------------------------------------------------|
A|-----------------------------------------------------|
E|-----------------------------------------------------|

e|------19-------19-19-19b-19b-19b-q9b--19b--19br--16 h19 r16 h19--19b--19b\--|
B|-17b-----17b----------------------------------------------------------------|
G|----------------------------------------------------------------------------|
D|----------------------------------------------------------------------------|
A|----------------------------------------------------------------------------|
E|----------------------------------------------------------------------------|

Outro:
e|----------------------------------------------------------------------------|
B|-----------------------------------------6-----------6------------6---------|
G|-----------------------------------------6-----------6------------6---------|
D|--6--6--6--6--6--6---6--6--6--6--6--6----6-----------6------------6---------|
A|--4--4--4--4--4--4---4--4--4--4--4--4----4-----------4------------4---------|
E|----------------------------------------------------------------------------|

e|---------------------------------------------------------------------------|
B|---------------------------------------------------------------------------|
G|---11----11brb---9---------------------------------------------------------|
D|---------------------11----------------------------------------------------|
A|--------------------------14--11---9b br br br-----------------------------|
E|---------------------------------------------------9/----------------------|


************************************

| p   Pull-off
| \   Slide down
| b   Bend
| br  Bend release
| ~   Vibrato
| r   Release
| /   Slide up

************************************

Almost there ...

Sign in to get your own page with links to favourite songs and more. You are just one click away...

Login with Facebook Login with Google