Log in

One click and you are in

Login with Facebook Login with Google

Why sign up and log in

Guitar Tabs Explorer
Unbelievable Truth guitar tabs for Solved

Guitar tabs with lyrics

unbelievable truth
solved

Chords:   EADGBE
       A chord diagramG+G  355433
       A chord diagramA augmentedA  577655
       A chord diagramBB  799877


[Riff: Intro + Verse 3X] (two electrics guitars)

e|--------------------------|------------------------|-------------------|
b|--------------------------|------------------------|-------------------|
g|--11-----11--9-------9----|--7-----7--6-------6----|--4----------------|
A chord diagramD MajorD|------9-----------7-------|-----5----------4-------|--5----------------|
A chord diagramA augmentedA|--------------------------|------------------------|-------------------|
A chord diagramE MajorE|--------------------------|------------------------|-------------------|
 |                          |                        |                   |
e|--------------------------|------------------------|-------------------|
b|--------------------------|------------------------|-------------------|
g|--------------------------|------------------------|-------------------|
A chord diagramD MajorD|--12---------11-----------|--9--------7------------|-/12---------------|
A chord diagramA augmentedA|--------------------------|------------------------|-------------------|
A chord diagramE MajorE|--------------------------|------------------------|-------------------|


[last riff] (two electrics guitars + bass)

e|--------------------------|------------------------|-------------------|
b|--------------------------|------------------------|-------------------|
g|--11-----11--9-------9----|--7-----7--6-------6----|--4----------------|
A chord diagramD MajorD|------9-----------7-------|-----5----------4-------|--5----------------|
A chord diagramA augmentedA|--------------------------|------------------------|-------------------|
A chord diagramE MajorE|--------------------------|------------------------|-------------------|
 |                          |                        |                   |
e|--------------------------|------------------------|-------------------|
b|--------------------------|------------------------|-------------------|
g|--------------------------|------------------------|-------------------|
A chord diagramD MajorD|--12---------11-----------|--9--------7--------7/--|--12---------------|
A chord diagramA augmentedA|--------------------------|------------------------|-------------------|
A chord diagramE MajorE|--------------------------|------------------------|-------------------|
 |                          |                        |                   |
A chord diagramG+G|--------------------------|------------------------|-------------------|
A chord diagramD MajorD|--------------------------|------------------------|-------------------|
A chord diagramA augmentedA|--------------------------|------------------------|-------------------|
A chord diagramE MajorE|--10\--------9------------|------------------------|-------------------|


[Chorus] (electric guitar + electro-acoustic guitar + bass)

    A chord diagramG+G           A chord diagramA augmentedA        A chord diagramBB                      A chord diagramA augmentedA
e|--------------------------|------------------------|
b|--------------7--5--7-----|-------------7--5--7----|
g|--7--4-----4-----------7--|----7--4----------------|
A chord diagramD MajorD|--------5-----------------|----------5-------------|
A chord diagramA augmentedA|--------------------------|------------------------|
A chord diagramE MajorE|--------------------------|------------------------|
 |                          |                        |
A chord diagramG+G|--------------------------|------------------------|
A chord diagramD MajorD|--------------------------|------------------------|
A chord diagramA augmentedA|--------------------------|------------------------|
A chord diagramE MajorE|--3-----------5--------7--|-------------------5----|


    A chord diagramG+G           A chord diagramA augmentedA        A chord diagramBB                      A chord diagramA augmentedA
e|--------------------------|------------------------|
b|--------------7--5--7-----|-------------7--5--7----|
g|--7--4-----4-----------7--|----7--4----------------|
A chord diagramD MajorD|--------5-----------------|----------5-------------|
A chord diagramA augmentedA|--------------------------|------------------------|
A chord diagramE MajorE|--------------------------|------------------------|
 |                          |                        |
A chord diagramG+G|--------------------------|------------------------|
A chord diagramD MajorD|--------------------------|------------------------|
A chord diagramA augmentedA|--------------------------|------------------------|
A chord diagramE MajorE|--3-----------5--------7--|-------------------5----|


    A chord diagramG+G           A chord diagramA augmentedA        A chord diagramBB                      A chord diagramA augmentedA
e|--------------------------|------------------------|
b|--------------7--5--7-----|-------------7--5--7----|
g|--7--4-----4-----------7--|----7--4----------------|
A chord diagramD MajorD|--------5-----------------|----------5-------------|
A chord diagramA augmentedA|--------------------------|------------------------|
A chord diagramE MajorE|--------------------------|------------------------|
 |                          |                        |
A chord diagramG+G|--------------------------|------------------------|
A chord diagramD MajorD|--------------------------|------------------------|
A chord diagramA augmentedA|--------------------------|------------------------|
A chord diagramE MajorE|--3-----------5--------7--|-------------------5----|


    A chord diagramG+G           A chord diagramA augmentedA        A chord diagramBB                      A chord diagramA augmentedA
e|--------------------------|-------------------------|
b|--------------7--5--7-----|-------------7--5--7-----|
g|--7--4-----4-----------7--|----7--4--------------7--|
A chord diagramD MajorD|--------5-----------------|----------5--------------|
A chord diagramA augmentedA|--------------------------|-------------------------|
A chord diagramE MajorE|--------------------------|-------------------------|
 |                          |                         |
A chord diagramG+G|--------------------------|-------------------------|
A chord diagramD MajorD|--------------------------|-------------------------|
A chord diagramA augmentedA|--------------------------|-------------------------|
A chord diagramE MajorE|--3-----------5--------7--|-------------------5-----|


[Bridge] (bass + electro-acoustic guitar)

e|--x--x--x--x--x--x--x--x--|--------------------------|
b|--x--x--x--x--x--x--x--x--|--0-----------------------|
g|--4--4--4--x--4--4--4--3--|--1-----------------------|
A chord diagramD MajorD|--5--5--5--x--5--5--5--4--|--2-----------------------|
A chord diagramA augmentedA|--5--5--5--x--5--5--5--4--|--2-----------------------|
A chord diagramE MajorE|--3--3--3--x--3--3--3--2--|--0-----------------------|
 |                          |                          |
A chord diagramG+G|--------------------------|--------------------------|
A chord diagramD MajorD|--------------------------|--------------------------|
A chord diagramA augmentedA|--------------------------|--------------------------|
A chord diagramE MajorE|--3--3--3-----3--3--3-----|--0--0--0-----0--0--0-----|


[Verse 3X] (two electrics guitars + one electro-acoustic guitar + bass)

e|--------------------------|------------------------|---------------------|
b|--------------------------|------------------------|---------------------|
g|--11-----11--9-------9----|--7-----7--6-------6----|--4------------------|
A chord diagramD MajorD|------9-----------7-------|-----5----------4-------|--5------------------|
A chord diagramA augmentedA|--------------------------|------------------------|---------------------|
A chord diagramE MajorE|--------------------------|------------------------|---------------------|
 |                          |                        |                     |
e|--------------------------|------------------------|---------------------|
b|--------------------------|------------------------|---------------------|
g|--------------------------|------------------------|---------------------|
A chord diagramD MajorD|--12---------11-----------|--9---------7-------7/--|--12-----------------|
A chord diagramA augmentedA|--------------------------|------------------------|---------------------|
A chord diagramE MajorE|--------------------------|------------------------|---------------------|
 |                          |                        |                     |
e|--------------------------|------------------------|---------------------|
b|--------------------------|------------------------|--0------------------|
g|--11---------9------------|--7---------6-----------|--4------------------|
A chord diagramD MajorD|--9----------7------------|--5---------4-----------|--5------------------|
A chord diagramA augmentedA|--------------------------|------------------------|---------------------|
A chord diagramE MajorE|--------------------------|------------------------|---------------------|
 |                          |                        |                     |
A chord diagramG+G|--------------------------|------------------------|---------------------|
A chord diagramD MajorD|--------------------------|------------------------|---------------------|
A chord diagramA augmentedA|--------------------------|------------------------|---------------------|
A chord diagramE MajorE|--10-10-10----9--9--9-----|--7--7--7----5--5--5----|--3--3--3---3--3--3--|


[Previous Chorus]

e|--------------------------|------------------------|---------------------|
b|--------------------------|------------------------|---------------------|
g|--11-----11--9-------9----|--7-----7--6-------6----|--4------------------|
A chord diagramD MajorD|------9-----------7-------|-----5----------4-------|--5------------------|
A chord diagramA augmentedA|--------------------------|------------------------|---------------------|
A chord diagramE MajorE|--------------------------|------------------------|---------------------|
 |                          |                        |                     |
e|--------------------------|------------------------|---------------------|
b|--------------------------|------------------------|---------------------|
g|--------------------------|------------------------|---------------------|
A chord diagramD MajorD|--12---------11-----------|--9---------7-------7/--|--12-----------------|
A chord diagramA augmentedA|--------------------------|------------------------|---------------------|
A chord diagramE MajorE|--------------------------|------------------------|---------------------|
 |                          |                        |                     |
e|--------------------------|------------------------|---------------------|
b|--------------------------|------------------------|--0------------------|
g|--11---------9------------|--7---------6-----------|--4------------------|
A chord diagramD MajorD|--9----------7------------|--5---------4-----------|--5------------------|
A chord diagramA augmentedA|--------------------------|------------------------|---------------------|
A chord diagramE MajorE|--------------------------|------------------------|---------------------|
 |                          |                        |                     |
A chord diagramG+G|--------------------------|------------------------|---------------------|
A chord diagramD MajorD|--------------------------|------------------------|---------------------|
A chord diagramA augmentedA|--------------------------|------------------------|---------------------|
A chord diagramE MajorE|--10-10-10----9--9--9-----|--7--7--7----5--5--5----|--3--3--3---3--3--3--|


A chord diagramG+G|--------------------------|
A chord diagramD MajorD|--------------------------|
A chord diagramA augmentedA|--------------------------|
A chord diagramE MajorE|--3--3--3-----3--3--3-----|
 |                          |
e|--------------3--3--3--3--|
b|--------------3--3--3--3--|
g|--------------4--4--4--4--|
A chord diagramD MajorD|--------------5--5--5--5--|
A chord diagramA augmentedA|--------------5--5--5--5--|
A chord diagramE MajorE|--------------3--3--3--3--|


[Chorus] (like the first chorus)


[Bridge] (electro-acoustic guitar + bass + two electrics guitars)


e|--------------------------|--------------------------|--------------------
------|
b|--------------------------|--------------------------|--------------------
------|
g|--------------------------|--------------------------|--------------------
------|
A chord diagramD MajorD|--------------------------|--------------------------|--------------------
------|
A chord diagramA augmentedA|--------4-----------4--4--|--------5-----------5--5--|--------2-----------
2--2--|
A chord diagramE MajorE|--2--2--2--2--2--2--2--2--|--3--3--3--3--3--3--3--3--|--0--0--0--0--0--0--
0--0--|
 |                          |                          |
      |
A chord diagramG+G|--------------------------|--------------------------|--------------------
------|
A chord diagramD MajorD|--------------------------|--------------------------|--------------------
------|
A chord diagramA augmentedA|--------------------------|--------------------------|--------------------
------|
A chord diagramE MajorE|--2--2--2--2--2--2--2--2--|--3--3--3--3--3--3--3--3--|--0--0--0--0--0--0--
0--0--|


e|--------------------------|--------------------------|--------------------
------|
b|--------------------------|--------------------------|--------------------
------|
g|--------------------------|--------------------------|--------------------
------|
A chord diagramD MajorD|--------------------------|--------------------------|--------------------
------|
A chord diagramA augmentedA|--------4-----------4--4--|--------5-----------5--5--|--------2-----------
2--2--|
A chord diagramE MajorE|--2--2--2--2--2--2--2--2--|--3--3--3--3--3--3--3--3--|--0--0--0--0--0--0--
0--0--|
 |                          |                          |
      |
A chord diagramG+G|--------------------------|--------------------------|--------------------
------|
A chord diagramD MajorD|--------------------------|--------------------------|--------------------
------|
A chord diagramA augmentedA|--------------------------|--------------------------|--------------------
------|
A chord diagramE MajorE|--2--2--2--2--2--2--2--2--|--3--3--3--3--3--3--3--3--|--0--0--0--0--0--0--
0--0--|


e|--------------------------|--------------------------|--------------------
------|
b|--------------------------|--------------------------|--------------------
------|
g|--------------------------|--------------------------|--------------------
------|
A chord diagramD MajorD|--------4--------4--4--4--|--------5--------5--5--5--|--------2--------2--
2--2--|
A chord diagramA augmentedA|--4--4--4--4--4--4--4--4--|--5--5--5--5--5--5--5--5--|--2--2--2--2--2--2--
2--2--|
A chord diagramE MajorE|--2--2--2--2--2--2--2--2--|--3--3--3--3--3--3--3--3--|--0--0--0--0--0--0--
0--0--|
 |                          |                          |
      |
A chord diagramG+G|--------------------------|--------------------------|--------------------
------|
A chord diagramD MajorD|--------------------------|--------------------------|--------------------
------|
A chord diagramA augmentedA|--------------------------|--------------------------|--------------------
------|
A chord diagramE MajorE|--2--2--2--2--2--2--2--2--|--3--3--3--3--3--3--3--3--|--0--0--0--0--0--0--
0--0--|
 |                          |                          |
      |
e|--------------------------|--------------------------|--------------------
------|
b|--------7--------7--------|--------8--------8--------|--------5--------5--
------|
g|-----6--6-----6--6--------|-----7--7-----7--7--------|-----4--4-----4--4--
------|
A chord diagramD MajorD|--4-----4--4--------------|--5--------5--------------|--2--------2--------
------|
A chord diagramA augmentedA|--------------------------|--------------------------|--------------------
------|
A chord diagramE MajorE|--------------------------|--------------------------|--------------------
------|


e|--------------------------|--------------------------|--------------------
------|
b|--------------------------|--------------------------|--------------------
------|
g|--------------------------|--------------------------|--------------------
------|
A chord diagramD MajorD|--------4--------4--4--4--|--------5--------5--5--5--|--2-----------------
------|
A chord diagramA augmentedA|--4--4--4--4--4--4--4--4--|--5--5--5--5--5--5--5--5--|--2-----------------
------|
A chord diagramE MajorE|--2--2--2--2--2--2--2--2--|--3--3--3--3--3--3--3--3--|--0-----------------
------|
 |                          |                          |
      |
A chord diagramG+G|--------------------------|--------------------------|--------------------
------|
A chord diagramD MajorD|--------------------------|--------------------------|--------------------
------|
A chord diagramA augmentedA|--------------------------|--------------------------|--------------------
------|
A chord diagramE MajorE|--2--2--2--2--2--2--2--2--|--3--3--3--3--3--3--3--3--|--0-----------------
------|
 |                          |                          |
      |
e|--------------------------|--------------------------|--------------------
------|
b|--------7--------7--------|--------8--------8--------|--5-----------------
------|
g|-----6--6-----6--6--------|-----7--7-----7--7--------|--4-----------------
------|
A chord diagramD MajorD|--4-----4--4--------------|--5--------5--------------|--2-----------------
------|
A chord diagramA augmentedA|--------------------------|--------------------------|--------------------
------|
A chord diagramE MajorE|--------------------------|--------------------------|--------------------
------|
 |                          |                          |
      |
e|--------------------------|--------------------------|--------------------
------|
b|--------------------------|--------------------------|--------------------
------|
g|--11-----11--9-------9----|--7-----7--6-------6------|--4-----------------
------|
A chord diagramD MajorD|------9-----------7-------|-----5----------4---------|--5-----------------
------|
A chord diagramA augmentedA|--------------------------|--------------------------|--------------------
------|
A chord diagramE MajorE|--------------------------|--------------------------|--------------------
------|


[Chorus] (like the first chorus + keyboard)



-=- -=- -=- -=- -=- -=- -=- -=- -=- -=- -=-
Tabbed by:  -=- -=- -=- -=- -=- -=- -=- -=-
-=- -=- -=- -=- -=- -=- -=- -=- -=- -=- -=-
-=- -=- axel  [ axel@popnews.com ]  -=- -=-
-=- -=- -=- -=- -=- -=- -=- -=- -=- -=- -=-
Please write me.-=- -=- -=- -=- -=- -=- -=-
-=- -=- -=- -=- -=- -=- -=- -=- -=- -=- -=-







-=- -=- -=- -=- -=- -=- -=- -=- -=- -=- -=-
     What Do You Want From Me  ? ?!!!!
-=- -=- -=- -=- -=- -=- -=- -=- -=- -=- -=-

Almost there ...

Sign in to get your own page with links to favourite songs and more. You are just one click away...

Login with Facebook Login with Google