Log in

One click and you are in

Login with Facebook Login with Google

Why sign up and log in

Guitar Tabs Explorer
Unashamed bass tabs for Awesome god

Bass tabs

Title:Awesome God
Album:Reflection
Copyright 1996,1988 (Awesome God)
Tabbed by Blake Elshire (belshire@telepath.com)
----------------------------------------------------------------------------
----  Verse
G|-------------------------------------------------------------
D|-------0-0-0--2-2-2--3-3-3--0-0-0--2-2-2--3-3-3--2--0--------
A|-3-3-3------------------------------------------------3------
E|-------------------------------------------------------------

Chorus
G|-----------------
D|--3---5----------
A|----3---X-X-X-X--
E|-----------------

Thats about it if theres anything wrong just e-mail me with the changes

Almost there ...

Sign in to get your own page with links to favourite songs and more. You are just one click away...

Login with Facebook Login with Google