Search tabs and chords

Search for song, artist or band

Log in

One click and you are in

Login with Facebook Login with Google

Why sign up and log in

Guitar Tabs Explorer
Umphreys Mcgee guitar tabs for The floor

Guitar tabs

The Floor
tabbed by scottee from Umphreaks

Bayliss:
e------------------------------------------------------------------------------------|
B------------------------------------------------------------------------------------|
G---------9-------------------11------------------9--------7-------------7-----------|
D-----9--------9---------9----------9---------9--------9---------7h9--------7h9------|
A--7----7----7---7-----7---7-----7---7-----7----7----7---7----7-------7--------------|
E------------------------------------------------------------------------------------|

Jake:
e--------7------7---10------7-------10------7----|
B------8------8---------10--------------10-------|
G----9------9------------------------------------|
D--9---------------------------------------------|
A------------------------------------------------|
E------------------------------------------------|

e--------7------7---10-------7-----15-----14----10h12-----|
B------8------8----------10-------------------------------|
G----9------9---------------------------------------------|
D--9------------------------------------------------------|
A---------------------------------------------------------|
E---------------------------------------------------------|

e--------7------7---10------7-------10------7------15----14------10h12------------|
B------8------8---------10--------------10-------------------------------10-------|
G----9------9---------------------------------------------------------------------|
D--9------------------------------------------------------------------------------|
A---------------------------------------------------------------------------------|
E---------------------------------------------------------------------------------|

e--------7------7---10------7-------10------7----8----7h8p7--------7----------------------|
B------8------8---------10--------------10--------------------10-------8---10---7---------|
G----9------9----------------------------------------------------------------------7h9p7--|
D--9--------------------------------------------------------------------------------------|
A-----------------------------------------------------------------------------------------|
E-----------------------------------------------------------------------------------------|

Lick A:
e--5b7------3h5p3----2------5b6------5-----3h5p3-----2-------|
B------------------------------------------------------------|
G------------------------------------------------------------|
D------------------------------------------------------------|
A------------------------------------------------------------|
E------------------------------------------------------------|

Strum as needed
e------------------------------~~------------|
B--8-----7-------11-----10-----13------15----|
G--x-----x-------x------x------x-------x-----|
D--9-----8-------12-----11-----14------16----|
A--------------------------------------------|
E--------------------------------------------|

Bass/Guitar Riff:
e-----------------------------------------------|
B-----------------------------------------------|
G-----------------------------------------------|
D-----------------------------------------------|
A--------7----5-7-----5-----5-4-----4-3-----2---|
E--0--0----0-------0-----0-------0-------0------|

guitar 2:
e--------------------------------------------------------------------|
B-----------~~-------------------------------------------~~----------|
G-----13-13-13-----9--13--14-----17-17-17----16----14----11-11---12--|
D-----x--x--x------x--x---x------x--x--x-----x-----x-----x--x----x---|
A-----11-11-11-----7--11--12-----15-15-15----14----12----9--9----10--|
E--0-----------------------------------------------------------------|

Heavy Riff: both Guitars
e----------------------------------------------|
B----------------------------------------------|
G----------------------------------------------|
D----------------------------------------------|
A----------7---5-7------5---5-4---4--3------2--|
E--0---0---7---5-7---0--5---5-4---4--3---2--2--|

Lead into Chorus: Jake plays A chord diagramG5G5 at the 10th fret instead of A chord diagramE5E5
e--------------------------------------------------------|
B--------------------------------------------------------|
G--9----------9----------9----------9----------9-----9---|
D--9----------9----------9----------9----------9-----9---|
A--7----------7----------7----------7----------7-----7---|
E----0-0-0-0----0-0-0-0---0-0-0-0---0-0-0-0---0-0---0-0--|

Chorus - "What the hell you..."
A chord diagramG MajorG | A chord diagramF#F# | A chord diagramA majorA | A chord diagramC majorC | A chord diagramD MajorD ||:
e---------------------------|
B---------------------------|
G--4----3----6----9-----11--|
D--5----4----7----10----12--|
A--5----4----7----10----12--|
E--3----2----5----8-----10--|

Almost there ...

Sign in to get your own page with links to favourite songs and more. You are just one click away...

Login with Facebook Login with Google