Log in

One click and you are in

Login with Facebook Login with Google

Why sign up and log in

Guitar Tabs Explorer
Umphreys Mcgee guitar tabs for Glory

Guitar tabs

Difficulty: Advanced

"Glory"
Umphrey's McGee
Live at St. Pat's Park, South Bend, IN 9/8/2006
Written by: Jake Cinninger and Brendan Bayliss

Tabbed by: hobanm@indiana.edu
Please forward any corrections/suggestions that you may have.

Umphrey's McGee - "Glory"

Jake Intro

A chord diagramE MajorE
e||------------------|
A chord diagramBB||---------------------|
A chord diagramG+G||----------------------------|
A chord diagramD MajorD||----------------------------|
A chord diagramA augmentedA||----------------------------|
A chord diagramE MajorE||------------------------|

A chord diagramE MajorE
e||-2h4p2p0-2-----------0-|-----------0-2-/4---|
A chord diagramBB||-----------4/5-2-------|--------------------|
A chord diagramG+G||-----------------2/4---|-21---2/4----------|
A chord diagramD MajorD||-----------------------|-42---4/6----------|
A chord diagramA augmentedA||-----------------------|-----2--------------|
A chord diagramE MajorE||-----------------------|------------------0-|

A chord diagramG#G#
|------------4-7/9-7-|-5h7p5-4h5p42p0-2/4-|
|--------5-7---------|---------------------|
|------4-------------|---------------------|
|----6---------------|---------------------|
|--------------------|---------------------|
|-4------------------|---------------------|

A chord diagramC#C#        A chord diagramBB
|---------|------2--|------7-9-10-11-10-9-7-----|
|-------5-|-----2-2-|-----7---------------------|
|---------|----4----|----8---9-10-11-10-9-8---8-|
|-----6---|---4-----|-4/9-------------------9---|
|---4-----|-2-------|---------------------------|
|-4-------|---------|---------------------------|

A chord diagramA augmentedA
|---------5h7p5----------|----------------------|
|-----5-5--------7p5-----|----------------------|
|----6----6h7p6--7p6-7p6-|----------------------|
|-7-7----------------7---|----------------------|
|------------------------|----------------------|
|------------------------|-2b3r2----------------|

"Glory" 9/8/06

A chord diagramE MajorE           A chord diagramG# minorG#m       A chord diagramA augmentedA           A chord diagramC# minorC#m
e||---0h2p0---0-----0---|---0h2p0---0-----0---|
A chord diagramBB||---------4-----0---0-|---------4-----0---0-|
A chord diagramG+G||---------------------|---------------------|
A chord diagramD MajorD||---------------------|---------------------|
A chord diagramA augmentedA||---------------------|-0-----------4-------|
A chord diagramE MajorE||-0-----------4-------|---------------------|

A chord diagramBB             A chord diagramA augmentedA
---0-0-0-0-2-|---/5-4-2-0---0-|
---0-2-4-0-0-|----0-0-0-0h2-0-|
-------------|----------------|
-------------|----------------|
-2-----------|-0--------------|
-------------|----------------|

Alternate ending Jake sometimes plays/improvises over the A chord diagramBB and the A chord diagramA augmentedA chord of the main theme

A chord diagramBB                       A chord diagramA augmentedA
--------7-9-11--7-------|----5h7p5------------|
------7-----------7-----|---5-----5h7p5-------|
----8---------------8---|--6-----------6h7p6--|
-/9-------------------9-|-7-----------------7-|
------------------------|---------------------|
------------------------|---------------------|

After this ending, Jake plays harmonics on the 12th fret while Brendan hits the open A chord diagramE MajorE
to start the theme again
()=Brendan

A chord diagramE MajorE              A chord diagramG# minorG#m      A chord diagramA augmentedA           A chord diagramC# minorC#m
e||--0h2p0---0-----0---|---0h2p0---0-----0---|
A chord diagramBB||--------4-----0---0-|---------4-----0---0-|
A chord diagramG+G||------------------------|---------------------|
A chord diagramD MajorD||------------------------|---------------------|
A chord diagramA augmentedA||------------------------|-0-----------4-------|
A chord diagramE MajorE||-(0)-------------4------|---------------------|

Chords: A chord diagramE MajorE A chord diagramG# minorG#m A chord diagramA augmentedA A chord diagramC# minorC#m A chord diagramBB A chord diagramA augmentedA


Solo in A chord diagramC# minorC#m pentatonic/E Major

Tablature Legend
----------------
 h   - hammer-on
 p   - pull-off
 b   - bend
 pb  - pre-bend
 r   - bend release
 /  - slide into or out of (from/to "nowhere")
  - natural harmonic


THE END!

Almost there ...

Sign in to get your own page with links to favourite songs and more. You are just one click away...

Login with Facebook Login with Google