Search tabs and chords

Search for song, artist or band

Log in

One click and you are in

Login with Facebook Login with Google

Why sign up and log in

Guitar Tabs Explorer
Umphreys Mcgee guitar tabs for 40s theme

Guitar tabs with lyrics

40's Theme
Umphrey's McGee
Transcribed by Jay P
Edited by Rich Steinmetz 2-12-02
Edited by Hunter Bauer 3/18/2015  (rbauer7@uic.edu)
E----------------------------------------------------5--5-5--5-|
B----------------------------------------------------5--5-5--5-|
G-----------6-9------------6-9------------4-7--------6--6-6--6-|Repeat (ends on A chord diagramG MajorG)
D---------7--------------7--------------5------------7--7-7--7-|
A-----6-9------------6-9------------4-7--------------7--7-7--7-|
E---7--------------7--------------5------------------5--5-5--5-|

Interlude (not exact but close)
E------------------7p4------------------------------10p7------------|
B----------------5-----6--------------------------7------9----------|
G--------------6---------7-4--------------------8----------70-7-----|
D----------5-8---------------6-------------7-10-----------------9---|
A------4-7-----------------------------6-9--------------------------|
E--3-6-----------------------------5-8------------------------------|

then the little country-ish riff
E-14-------14--------------14-------14-----------14------------------7-7-7--6--4--|
B-14----------14-----------14----------14-----------14---------------7-7-7--6--4--|
G-13b15----------b15r13-------13b15---------13b15------11-------------------------|con't
D---------------------------------------------------------------------------------|
A---------------------------------------------------------------------------------|
E-------------------------------------------------------------2-3-4---------------|

Verse can be played like this:

        G#m7(9?)               A chord diagramC#9C#9                  F#m7(9?)        A chord diagramB9B9
e---------4----------------------------------------------2------------------|
b---------4--------------------4-------------------------2-----------2------|
g---------4 (strum)------------4-(strum)-----------------2-(strum)---2------| con't
d---------4--------------------3-------------------------2-----------1------|
a---------4----------2-3-4-----4-------------------------2-----------2------|
e--2-3-4--4--------------------------------------0-1-2---2------------------|

Little rig played over the A chord diagramF#F#
E----------------------------------------|
B-2----2----2----2---2-------(2)---------|
G-4b6--4b6--4b6--4b6-4b6r4--4-2----------|
D--------------------------4-------------|
A----------------------------------------|
E----------------------------------------|

After the last verse, it cools down:
Jam in A chord diagramC#C# Dorian

Jake toys around with this chord in rhythm.

C#m7add11
e---4--
b---7--
g---4--
d---6--
a---4--
e------
He likes to play with the 7th fret of the A chord diagramBB string, going down to 5 and 4 sometimes

Once Brendan gives the nob to move the jam into the next section, it changes to the following chords:
    A chord diagramC#5C#5    A chord diagramE5E5   A chord diagramF#5F#5    A chord diagramG#5G#5    A chord diagramF#5F#5
E---------------------------------------------------|
B---------------------------------------------------|
G----6-----9----11--/--13--\--11--------------------|
D----6-----9----11--/--13--\--11--------------------|
A----4---6-7-----9--/--11--\---9--------------------|
E---------------------------------------------------|
Brendan's solo is in A chord diagramC#C# Dorian, which an emphasis on the #6 (A chord diagramA#A#)

Then when Brendan switches to rhythm, it changes to something like this:
     A chord diagramC#5C#5    A chord diagramE5E5   A chord diagramD#D#    A chord diagramG#5G#5
E---------------------------------------------------|
B---------------------------------------------------|
G----6-----9-----8--/--13---------------------------|
D----6-----9-----8--/--13---------------------------|
A----4-----7-----6--/--11---------------------------|
E---------------------------------------------------|
Jake's solo is in A chord diagramC#C# Minor Pentatonic, which some hints of Aeolian (some A chord diagramA majorA naturals in there)

Jake's Part at the end of jam
E--12-11------12-11------12-11----------12-11-----------|
B--------12~--------12~--------12^(14)--------12^(14)---|
G-------------------------------------------------------|
D-------------------------------------------------------|
A-------------------------------------------------------|

Almost there ...

Sign in to get your own page with links to favourite songs and more. You are just one click away...

Login with Facebook Login with Google