Log in

One click and you are in

Login with Facebook Login with Google

Why sign up and log in

Guitar Tabs Explorer
Ulver guitar tabs for Utreise

Guitar tabs

ULVER Utreise (Exodus)
Album: Kveldssanger

Authors: Mateusz Socho=F1  e-mail: nazgul13@wp.pl
         Anna Parzychowska  e-mail scooobie@wp.pl
                     =20
Tunning: A chord diagramE MajorE (E,A,D,G,H,E)
Riff A chord diagramA augmentedA
Guitar 1   =20
e[------------------------------]=20
h[------------------------------]
g[---2-4-4/5-4-2-0-4-2----------]
d[--2---------------------------]
a[-0----------------------------]
E[------------------------------]


Riff A*
Guitar 2        [1,3]     [2]         [4]=20
e[-5-7-8--7-5-----{-7-8-5---}-7-0-------}-7-5---]
h[------------8-5-{---------}-----5-6---}-------]
g[----------------{---------}---------7-}-------]
d[----------------{---------}-----------}-------]
a[----------------{---------}-----------}-------]
E[----------------{---------}-----------}-------]


Riff A**
e[-5-7-8-5-7-8-5-]
h[--5-5-5-5-5-5--]
g[---------------]
d[---------------]
a[---------------]
E[---------------]


Riff A chord diagramBB
Guitar 1
e[---------------------------------------]
h[-1-3-5-6-5-3-------1-3-5\6-5-3---------]
g[-------------4---2-------------4---(2)-]
d[---------------5-----------------5-----]

Guitar 2
a[-3-5-7-8-7-5-------3-5-7\8-7-5---------]
E[-------------7-3-5-------------7-3-(5)-]


Riff A chord diagramC majorC
e[----------------------------] =20
h[----------------------------]
g[----------------------------]
d[-4--5-4----5--4-2-0-2-4-5---]
a[-2--------------------------]
E[-----------0------3---------]


Solos
e[-5-7-8|-8-7-5---5|----------10-12|-10-8-7----7------]
h[------|-------7--|-13-12-10------|--------10---8-10-]
g[------|----------|---------------|------------------]
d[------|----------|---------------|------------------]
a[------|----------|---------------|------------------]
E[------|----------|---------------|------------------]


Riff A chord diagramA augmentedA X4

Riff A chord diagramA augmentedA X4 + Riff A*

Riff A chord diagramBB X2=20

Riff A chord diagramA augmentedA X2

Riff A chord diagramA augmentedA X2 + Riff A* (with the first ending only)

Riff A chord diagramBB X2

Riff A chord diagramC majorC X8 + choirs singing here

Riff A chord diagramA augmentedA X2

Riff A chord diagramA augmentedA X2 + Riff A**

Riff A chord diagramA augmentedA X2 + Riff A* + Riff A**=20
(and the solos....catch the rythm)
Fade out    =20

This file is our interpretation of the song and can only be used for =
practice and educational purpouses

Almost there ...

Sign in to get your own page with links to favourite songs and more. You are just one click away...

Login with Facebook Login with Google