Log in

One click and you are in

Login with Facebook Login with Google

Why sign up and log in

Guitar Tabs Explorer
Ulver bass tabs for Machine guns and peacock feathers

Machine Guns And Peacock Feathers bass tab by Ulver

Ulver bass tabs for Machine guns and peacock feathers

Bass tabs

Tuning: Standard (E A D G)


Verse 1:

G|---------------------------------------------------------------------------|
D|---2222-------2222-------0000-------000-0----------------------------------|
A|---------------------------------------2-----------------------------------|
E|---------------------------------------------------------------------------|
Verse 2:

G|---------------------------------------------------------------------------|
D|---2222-------2222-------0000-------00 0-0--------------------------------|
A|-----------------------------------------2---------------------------------|
E|---------------------------------------------------------------------------|


Verse 3:

G|---------------------------------------------------------------------------|
D|---2222-------2222-------00--0-0-------------------------------------------|
A|------------------------------2--------------------------------------------|
E|---------------------------------------------------------------------------|


Verse 4:

G|---------------------------------------------------------------------------|
D|---2222-------22--222-------0000-------000-0-------------------------------|
A|------------------------------------------2--------------------------------|
E|---------------------------------------------------------------------------|


Verse 5:

G|---------------------------------------------------------------------------|
D|---2222-------22--222-------0000-------00--0-0-----------------------------|
A|--------------------------------------------2------------------------------|
E|---------------------------------------------------------------------------|

Verse 6:

G|---------------------------------------------------------------------------|
D|---2~-----------------------0~---------------------------------------------|
A|---------------------------------------------------------------------------|
E|---------------------------------------------------------------------------|


Outro:

G|---------------------------------------------------------------------------|
D|---2222-------0000---------------------------------------------------------|
A|-------------------------2222--------3333----------------------------------|
E|---------------------------------------------------------------------------|


ORDER OF THE SONG:


Verse 1: x3

Verse 2: x1

Verse 3: x1


Verse 4: x1

Verse 5: x1

Verse 1: x2


Verse 5: x2

Verse 4: x2

Verse 2: x2


Verse 5: x2

Verse 6: x2

Outro:  x4


************************************

| ~ Vibrato
|

************************************

Almost there ...

Sign in to get your own page with links to favourite songs and more. You are just one click away...

Login with Facebook Login with Google