Search tabs and chords

Search for song, artist or band

Log in

One click and you are in

Login with Facebook Login with Google

Why sign up and log in

Guitar Tabs Explorer
Ulver guitar tabs for I troldskog faren vild acoustic

I Troldskog Faren Vild Acoustic tab by Ulver

Ulver guitar tabs for I troldskog faren vild acoustic

Guitar tabs

off of their album Bergtatt

2 Guitars, Standard tuning
let ring throughout

guitar 1

e---------------|----------------------|--------------|--------------|
b---------------|----------------------|--------------|--------------|
g---------------|---2-0--2-0--2-0--2-0-|--2--2--2--2--|--4--4--4--4--|
d---2--2--2--2--|-3----3----3----3-----|---3--3--3--3-|---5--5--5--5-|
a----5--5--5--5-|----------------------|-5--5--5--5---|-7--7-----7---|
e-5---5--5--5---|----------------------|--------------|-------0------|

e---------------|----------------------|--------------|--------------|
b---------------|----------------------|--------------|--------------|
g---------------|---2-0--2-0--2-0--2-0-|--2--2--2--2--|--4--4--------|
d---2--2--2--2--|-3----3----3----3-----|---3--3--3--3-|---5--5-------|
a----5--5--5--5-|----------------------|-5--5--5--5---|-7--7---------|
e-5---5--5--5---|----------------------|--------------|-------0------|



guitar 2

e--------------|--------------|--0--0--0--0--|--0--0--0--0--|
b--1--1--1--1--|--------------|---1--1--1--1-|---1--1--1--1-|
g---2--2--2--2-|--2--2--2--2--|--------------|--------------|
d--------------|---3--3--3--3-|-0--0--0--0---|-2--2--2--2---|
a-0--0--0--0---|--------------|--------------|--------------|
e--------------|-1--1--1--1---|--------------|--------------|

e--------------|--------------|--0--0--0--0--|--0--0--------|
b--1--1--1--1--|--------------|---1--1--1--1-|---1--1-------|
g---2--2--2--2-|--2--2--2--2--|--------------|--------------|
d--------------|---3--3--3--3-|-0--0--0--0---|-2--2--2------|
a-0--0--0--0---|--------------|--------------|--------------|

Almost there ...

Sign in to get your own page with links to favourite songs and more. You are just one click away...

Login with Facebook Login with Google