Log in

One click and you are in

Login with Facebook Login with Google

Why sign up and log in

Guitar Tabs Explorer
Ultravox guitar tabs for Young savage

Guitar tabs

Intro:
e|------------------------------------------8-----8----------8-----8-------------------------6/8---------|
B|---8-9----8-9----8----8-9---8-9---8-----9-----9------9---9-----9-----9----8-9----8-9----8--6/8---------|
G|10-----10-----10----8-----8-----8----10-----10----10---8-----8-----8---10-----10-----10----------------|
D|-------------------------------------------------------------------------------------------------------|
A|-------------------------------------------------------------------------------------------------------|
E|-------------------------------------------------------------------------------------------------------|
Verse 1:
    A chord diagramFF                A chord diagramFF                 A chord diagramBb majorBb                 A chord diagramBb majorBb
e|----------------|-----------------|------------------|--------------------|
B|----------------|-----------------|------------------|--------------------|
G|8/10------------|8/10-------------|------------------|--------------------|
D|8/10------------|8/10-------------|6/8---------------|6/8-----------------|
A|6/8-------------|6/8--------------|6/8---------------|6/8-----------------|
E|----------------|-----------------|4/6---------------|4/6-----------------|

    A chord diagramEb MajorEb               A chord diagramEb MajorEb              A chord diagramFF                           A chord diagramFF
e|----------------|-----------------|---------------------------|------------------------------|
B|----------------|-----------------|---------------------------|------------------------------|
G|6/8-------------|6/8--------------|10-10-10-10-10-10-10-10-10-|10-10-10-10-10-10-10-10-10-10-|
D|6/8-------------|6/8--------------|10-10-10-10-10-10-10-10-10-|10-10-10-10-10-10-10-10-10-10-|
A|4/6-------------|4/6--------------|8--8--8--8--8--8--8--8--8--|8--8--8--8--8--8--8--8--8--8--|
E|----------------|-----------------|---------------------------|------------------------------|


Chorus 1:
  A chord diagramC majorC                        A chord diagramC majorC                        A chord diagramBb majorBb                       A chord diagramBb majorBb
e|------------------------|------------------------|------------------------|------------------------|
B|------------------------|------------------------|------------------------|------------------------|
G|9--9--9--9--9--9--9--9--|9--9--9--9--9--9--9--9--|7--7--7--7--7--7--7--7--|7--7--7--7--7--7--7--7--|
D|10-10-10-10-10-10-10-10-|10-10-10-10-10-10-10-10-|8--8--8--8--8--8--8--8--|8--8--8--8--8--8--8--8--|
A|10-10-10-10-10-10-10-10-|10-10-10-10-10-10-10-10-|8--8--8--8--8--8--8--8--|8--8--8--8--8--8--8--8--|
E|8--8--8--8--8--8--8--8--|8--8--8--8--8--8--8--8--|6--6--6--6--6--6--6--6--|6--6--6--6--6--6--6--6--|

  A chord diagramC majorC                        A chord diagramC majorC                        A chord diagramBb majorBb                       A chord diagramBb majorBb
e|------------------------|------------------------|------------------------|------------------------|
B|------------------------|------------------------|------------------------|------------------------|
G|9--9--9--9--9--9--9--9--|9--9--9--9--9--9--9--9--|7--7--7--7--7--7--7--7--|7--7--7--7--7--7--7--7--|
D|10-10-10-10-10-10-10-10-|10-10-10-10-10-10-10-10-|8--8--8--8--8--8--8--8--|8--8--8--8--8--8--8--8--|
A|10-10-10-10-10-10-10-10-|10-10-10-10-10-10-10-10-|8--8--8--8--8--8--8--8--|8--8--8--8--8--8--8--8--|
E|8--8--8--8--8--8--8--8--|8--8--8--8--8--8--8--8--|6--6--6--6--6--6--6--6--|6--6--6--6--6--6--6--6--|

  A chord diagramFF                           A chord diagramFF
e|---------------------------|------------------------------|
B|---------------------------|------------------------------|
G|10-10-10-10-10-10-10-10-10-|10-10-10-10-10-10-10-10-10-10-|
D|10-10-10-10-10-10-10-10-10-|10-10-10-10-10-10-10-10-10-10-|
A|8--8--8--8--8--8--8--8--8--|8--8--8--8--8--8--8--8--8--8--|
E|---------------------------|------------------------------|

Verse 2:
    A chord diagramFF                A chord diagramFF                 A chord diagramBb majorBb                 A chord diagramBb majorBb
e|----------------|-----------------|------------------|--------------------|
B|----------------|-----------------|------------------|--------------------|
G|8/10------------|8/10-------------|------------------|--------------------|
D|8/10------------|8/10-------------|6/8---------------|6/8-----------------|
A|6/8-------------|6/8--------------|6/8---------------|6/8-----------------|
E|----------------|-----------------|4/6---------------|4/6-----------------|

    A chord diagramEb MajorEb               A chord diagramEb MajorEb              A chord diagramFF                           A chord diagramFF
e|----------------|-----------------|---------------------------|------------------------------|
B|----------------|-----------------|---------------------------|------------------------------|
G|6/8-------------|6/8--------------|10-10-10-10-10-10-10-10-10-|10-10-10-10-10-10-10-10-10-10-|
D|6/8-------------|6/8--------------|10-10-10-10-10-10-10-10-10-|10-10-10-10-10-10-10-10-10-10-|
A|4/6-------------|4/6--------------|8--8--8--8--8--8--8--8--8--|8--8--8--8--8--8--8--8--8--8--|
E|----------------|-----------------|---------------------------|------------------------------|


Chorus 2:
  A chord diagramC majorC                        A chord diagramC majorC                        A chord diagramBb majorBb                       A chord diagramBb majorBb
e|------------------------|------------------------|------------------------|------------------------|
B|------------------------|------------------------|------------------------|------------------------|
G|9--9--9--9--9--9--9--9--|9--9--9--9--9--9--9--9--|7--7--7--7--7--7--7--7--|7--7--7--7--7--7--7--7--|
D|10-10-10-10-10-10-10-10-|10-10-10-10-10-10-10-10-|8--8--8--8--8--8--8--8--|8--8--8--8--8--8--8--8--|
A|10-10-10-10-10-10-10-10-|10-10-10-10-10-10-10-10-|8--8--8--8--8--8--8--8--|8--8--8--8--8--8--8--8--|
E|8--8--8--8--8--8--8--8--|8--8--8--8--8--8--8--8--|6--6--6--6--6--6--6--6--|6--6--6--6--6--6--6--6--|

  A chord diagramC majorC                        A chord diagramC majorC                        A chord diagramBb majorBb                       A chord diagramBb majorBb
e|------------------------|------------------------|------------------------|------------------------|
B|------------------------|------------------------|------------------------|------------------------|
G|9--9--9--9--9--9--9--9--|9--9--9--9--9--9--9--9--|7--7--7--7--7--7--7--7--|7--7--7--7--7--7--7--7--|
D|10-10-10-10-10-10-10-10-|10-10-10-10-10-10-10-10-|8--8--8--8--8--8--8--8--|8--8--8--8--8--8--8--8--|
A|10-10-10-10-10-10-10-10-|10-10-10-10-10-10-10-10-|8--8--8--8--8--8--8--8--|8--8--8--8--8--8--8--8--|
E|8--8--8--8--8--8--8--8--|8--8--8--8--8--8--8--8--|6--6--6--6--6--6--6--6--|6--6--6--6--6--6--6--6--|

e|------------------------------------------8-----8----------8-----8---------------------------------|
B|---8-9----8-9----8----8-9---8-9---8-----9-----9------9---9-----9-----9----8-9----8-9----8----------|
G|10-----10-----10----8-----8-----8----10-----10----10---8-----8-----8---10-----10-----10------------|
D|---------------------------------------------------------------------------------------------------|
A|---------------------------------------------------------------------------------------------------|
E|---------------------------------------------------------------------------------------------------|

e|----------------------6/8-8-8-8-8-8-8-8-8-8-8-8-8-8-8-8-|
B|---8-11----8-11----8--6/8-8-8-8-8-8-8-8-8-8-8-8-8-8-8-8-|
G|10------10------10--------------------------------------|
D|--------------------------------------------------------|
A|--------------------------------------------------------|
E|--------------------------------------------------------|


Chorus 3:
  A chord diagramC majorC                        A chord diagramC majorC                        A chord diagramBb majorBb                       A chord diagramBb majorBb
e|------------------------|------------------------|------------------------|------------------------|
B|------------------------|------------------------|------------------------|------------------------|
G|9--9--9--9--9--9--9--9--|9--9--9--9--9--9--9--9--|7--7--7--7--7--7--7--7--|7--7--7--7--7--7--7--7--|
D|10-10-10-10-10-10-10-10-|10-10-10-10-10-10-10-10-|8--8--8--8--8--8--8--8--|8--8--8--8--8--8--8--8--|
A|10-10-10-10-10-10-10-10-|10-10-10-10-10-10-10-10-|8--8--8--8--8--8--8--8--|8--8--8--8--8--8--8--8--|
E|8--8--8--8--8--8--8--8--|8--8--8--8--8--8--8--8--|6--6--6--6--6--6--6--6--|6--6--6--6--6--6--6--6--|

  A chord diagramC majorC                        A chord diagramC majorC                        A chord diagramBb majorBb                       A chord diagramBb majorBb
e|------------------------|------------------------|------------------------|------------------------|
B|------------------------|------------------------|------------------------|------------------------|
G|9--9--9--9--9--9--9--9--|9--9--9--9--9--9--9--9--|7--7--7--7--7--7--7--7--|7--7--7--7--7--7--7--7--|
D|10-10-10-10-10-10-10-10-|10-10-10-10-10-10-10-10-|8--8--8--8--8--8--8--8--|8--8--8--8--8--8--8--8--|
A|10-10-10-10-10-10-10-10-|10-10-10-10-10-10-10-10-|8--8--8--8--8--8--8--8--|8--8--8--8--8--8--8--8--|
E|8--8--8--8--8--8--8--8--|8--8--8--8--8--8--8--8--|6--6--6--6--6--6--6--6--|6--6--6--6--6--6--6--6--|

  A chord diagramFF                           A chord diagramFF
e|---------------------------|------------------------------|
B|---------------------------|------------------------------|
G|10-10-10-10-10-10-10-10-10-|10-10-10-10-10-10-10-10-10-10-|
D|10-10-10-10-10-10-10-10-10-|10-10-10-10-10-10-10-10-10-10-|
A|8--8--8--8--8--8--8--8--8--|8--8--8--8--8--8--8--8--8--8--|
E|---------------------------|------------------------------|


Verse 3:
    A chord diagramFF                A chord diagramFF                 A chord diagramBb majorBb                 A chord diagramBb majorBb
e|----------------|-----------------|------------------|--------------------|
B|----------------|-----------------|------------------|--------------------|
G|8/10------------|8/10-------------|------------------|--------------------|
D|8/10------------|8/10-------------|6/8---------------|6/8-----------------|
A|6/8-------------|6/8--------------|6/8---------------|6/8-----------------|
E|----------------|-----------------|4/6---------------|4/6-----------------|

    A chord diagramEb MajorEb               A chord diagramEb MajorEb              A chord diagramFF                           A chord diagramFF
e|----------------|-----------------|---------------------------|------------------------------|
B|----------------|-----------------|---------------------------|------------------------------|
G|6/8-------------|6/8--------------|10-10-10-10-10-10-10-10-10-|10-10-10-10-10-10-10-10-10-10-|
D|6/8-------------|6/8--------------|10-10-10-10-10-10-10-10-10-|10-10-10-10-10-10-10-10-10-10-|
A|4/6-------------|4/6--------------|8--8--8--8--8--8--8--8--8--|8--8--8--8--8--8--8--8--8--8--|
E|----------------|-----------------|---------------------------|------------------------------|


Chorus 4:
  A chord diagramC majorC                        A chord diagramC majorC                        A chord diagramBb majorBb                       A chord diagramBb majorBb
e|------------------------|------------------------|------------------------|------------------------|
B|------------------------|------------------------|------------------------|------------------------|
G|9--9--9--9--9--9--9--9--|9--9--9--9--9--9--9--9--|7--7--7--7--7--7--7--7--|7--7--7--7--7--7--7--7--|
D|10-10-10-10-10-10-10-10-|10-10-10-10-10-10-10-10-|8--8--8--8--8--8--8--8--|8--8--8--8--8--8--8--8--|
A|10-10-10-10-10-10-10-10-|10-10-10-10-10-10-10-10-|8--8--8--8--8--8--8--8--|8--8--8--8--8--8--8--8--|
E|8--8--8--8--8--8--8--8--|8--8--8--8--8--8--8--8--|6--6--6--6--6--6--6--6--|6--6--6--6--6--6--6--6--|

  A chord diagramC majorC                        A chord diagramC majorC                        A chord diagramBb majorBb                       A chord diagramBb majorBb
e|------------------------|------------------------|------------------------|------------------------|
B|------------------------|------------------------|------------------------|------------------------|
G|9--9--9--9--9--9--9--9--|9--9--9--9--9--9--9--9--|7--7--7--7--7--7--7--7--|7--7--7--7--7--7--7--7--|
D|10-10-10-10-10-10-10-10-|10-10-10-10-10-10-10-10-|8--8--8--8--8--8--8--8--|8--8--8--8--8--8--8--8--|
A|10-10-10-10-10-10-10-10-|10-10-10-10-10-10-10-10-|8--8--8--8--8--8--8--8--|8--8--8--8--8--8--8--8--|
E|8--8--8--8--8--8--8--8--|8--8--8--8--8--8--8--8--|6--6--6--6--6--6--6--6--|6--6--6--6--6--6--6--6--|

e|------------------------------------------8-----8----------8-----8---------------------------------|
B|---8-9----8-9----8----8-9---8-9---8-----9-----9------9---9-----9-----9----8-9----8-9----8----------|
G|10-----10-----10----8-----8-----8----10-----10----10---8-----8-----8---10-----10-----10------------|
D|---------------------------------------------------------------------------------------------------|
A|---------------------------------------------------------------------------------------------------|
E|---------------------------------------------------------------------------------------------------|

e|---------------------------8------8----------8-----8-------|
B|---8-11----8-11---8------9------9------9---9-----9-----9---|
G|10------10------10----10-----10-----10---8-----8-----8-----|
D|-----------------------------------------------------------|
A|-----------------------------------------------------------|
E|-----------------------------------------------------------|

e|------------------------------------------8-----8----------8-----8---------------------------------|
B|---8-9----8-9----8----8-9---8-9---8-----9-----9------9---9-----9-----9----8-9----8-9----8----------|
G|10-----10-----10----8-----8-----8----10-----10----10---8-----8-----8---10-----10-----10------------|
D|---------------------------------------------------------------------------------------------------|
A|---------------------------------------------------------------------------------------------------|
E|---------------------------------------------------------------------------------------------------|

e|----------------------6/8---|
B|---8-11----8-11---8---6/8---|
G|10------10------10----------|
D|----------------------------|
A|----------------------------|
E|----------------------------|


Verse 4:
  A chord diagramFF                A chord diagramFF                 A chord diagramBb majorBb                 A chord diagramBb majorBb
e|----------------|-----------------|------------------|--------------------|
B|----------------|-----------------|------------------|--------------------|
G|----------------|-----------------|------------------|--------------------|
D|----------------|-----------------|8---8-------------|--------------------|
A|----------------|-----------------|8---8-------------|--------------------|
E|----------------|-----------------|6---6-------------|--------------------|

  A chord diagramEb MajorEb               A chord diagramEb MajorEb                A chord diagramFF                           A chord diagramFF
e|----------------|-----------------|---------------------------|------------------------------|
B|----------------|-----------------|---------------------------|------------------------------|
G|8---8-----------|-----------------|10-10-10-10-10-10-10-10-10-|10-10-10-10-10-10-10-10-10-10-|
D|8---8-----------|-----------------|10-10-10-10-10-10-10-10-10-|10-10-10-10-10-10-10-10-10-10-|
A|6---6-----------|-----------------|8--8--8--8--8--8--8--8--8--|8--8--8--8--8--8--8--8--8--8--|
E|----------------|-----------------|---------------------------|------------------------------|


Chorus 5/6:
  A chord diagramC majorC                        A chord diagramC majorC                        A chord diagramBb majorBb                       A chord diagramBb majorBb
e|------------------------|------------------------|------------------------|------------------------|
B|------------------------|------------------------|------------------------|------------------------|
G|9--9--9--9--9--9--9--9--|9--9--9--9--9--9--9--9--|7--7--7--7--7--7--7--7--|7--7--7--7--7--7--7--7--|
D|10-10-10-10-10-10-10-10-|10-10-10-10-10-10-10-10-|8--8--8--8--8--8--8--8--|8--8--8--8--8--8--8--8--|
A|10-10-10-10-10-10-10-10-|10-10-10-10-10-10-10-10-|8--8--8--8--8--8--8--8--|8--8--8--8--8--8--8--8--|
E|8--8--8--8--8--8--8--8--|8--8--8--8--8--8--8--8--|6--6--6--6--6--6--6--6--|6--6--6--6--6--6--6--6--|

  A chord diagramC majorC                        A chord diagramC majorC                        A chord diagramBb majorBb                       A chord diagramBb majorBb
e|------------------------|------------------------|------------------------|------------------------|
B|------------------------|------------------------|------------------------|------------------------|
G|9--9--9--9--9--9--9--9--|9--9--9--9--9--9--9--9--|7--7--7--7--7--7--7--7--|7--7--7--7--7--7--7--7--|
D|10-10-10-10-10-10-10-10-|10-10-10-10-10-10-10-10-|8--8--8--8--8--8--8--8--|8--8--8--8--8--8--8--8--|
A|10-10-10-10-10-10-10-10-|10-10-10-10-10-10-10-10-|8--8--8--8--8--8--8--8--|8--8--8--8--8--8--8--8--|
E|8--8--8--8--8--8--8--8--|8--8--8--8--8--8--8--8--|6--6--6--6--6--6--6--6--|6--6--6--6--6--6--6--6--|

  A chord diagramC majorC                        A chord diagramC majorC                        A chord diagramBb majorBb                       A chord diagramBb majorBb
e|------------------------|------------------------|------------------------|------------------------|
B|------------------------|------------------------|------------------------|------------------------|
G|9--9--9--9--9--9--9--9--|9--9--9--9--9--9--9--9--|7--7--7--7--7--7--7--7--|7--7--7--7--7--7--7--7--|
D|10-10-10-10-10-10-10-10-|10-10-10-10-10-10-10-10-|8--8--8--8--8--8--8--8--|8--8--8--8--8--8--8--8--|
A|10-10-10-10-10-10-10-10-|10-10-10-10-10-10-10-10-|8--8--8--8--8--8--8--8--|8--8--8--8--8--8--8--8--|
E|8--8--8--8--8--8--8--8--|8--8--8--8--8--8--8--8--|6--6--6--6--6--6--6--6--|6--6--6--6--6--6--6--6--|

  A chord diagramC majorC                        A chord diagramC majorC                        A chord diagramBb majorBb                       A chord diagramBb majorBb
e|------------------------|------------------------|------------------------|------------------------|
B|------------------------|------------------------|------------------------|------------------------|
G|9--9--9--9--9--9--9--9--|9--9--9--9--9--9--9--9--|7--7--7--7--7--7--7--7--|7--7--7--7--7--7--7--7--|
D|10-10-10-10-10-10-10-10-|10-10-10-10-10-10-10-10-|8--8--8--8--8--8--8--8--|8--8--8--8--8--8--8--8--|
A|10-10-10-10-10-10-10-10-|10-10-10-10-10-10-10-10-|8--8--8--8--8--8--8--8--|8--8--8--8--8--8--8--8--|
E|8--8--8--8--8--8--8--8--|8--8--8--8--8--8--8--8--|6--6--6--6--6--6--6--6--|6--6--6--6--6--6--6--6--|

e|------------------------|-----------------|
B|------------------------|-----------------|
G|10-10-10-10-10-10-10-10-|10---------------|
D|10-10-10-10-10-10-10-10-|10---------------|
A|8--8--8--8--8--8--8--8--|8----------------|
E|------------------------|-----------------|


************************************

| /   Slide up

Almost there ...

Sign in to get your own page with links to favourite songs and more. You are just one click away...

Login with Facebook Login with Google