Log in

One click and you are in

Login with Facebook Login with Google

Why sign up and log in

Guitar Tabs Explorer
Ultraje A Rigor guitar chords for O chiclete

Guitar chords

MÚSICA: O CHICLETE
AUTOR: EDGARD SCANDURRA
DISCO: ULTRAJE A chord diagramA majorA RIGOR - 18 ANOS SEM TIRAR
Transcrito por Rafael Olivares
RIFF (00:00)
4 vezes:
e--------------------------------------|
B--------------------------------------|
G--------------------------------------|
D-----4--7--5--4-----------------------|
A--5--------------7-----4--7-----4--7--|
E--------------------5--------5--------|


Verso ("O chiclete que você mastiga não é igual ao
meu...") (00:14):
e--------------------------------------|
B--------------------------------------|
G--7-7-7-7-----------------------------|
D--7-7-7-7--5-5-5-5--7-7-7-7--7-7-7-7--|
A--5-5-5-5--5-5-5-5--7-7-7-7--7-7-7-7--|
E-----------3-3-3-3--5-5-5-5--5-5-5-5--|


Bridge ("Enche a boca de ar...") (00:28):
e--------------------------------------|
B--------------------------------------|
G--------------------------------------|
D--4-4-4-4--5-5-5-5--7-7-7-7--7-7-7-7--|
A--4-4-4-4--5-5-5-5--7-7-7-7--7-7-7-7--|
E--2-2-2-2--3-3-3-3--5-5-5-5--5-5-5-5--|


Pre-refrão ("O meu chiclete faz ploc...") (00:59)
e--------------------------------------|
B--------------------------------------|
G-----------7-7-7-7-----------7-7-7-7--|
D--5-5-5-5--7-7-7-7--7-7-7-7--7-7-7-7--|
A--5-5-5-5--5-5-5-5--7-7-7-7--5-5-5-5--|
E--3-3-3-3-----------5-5-5-5-----------|


Refrão: ("Bu bu bundão...") (01:06)
e--------------------------------------|
B--------------------------------------|
G-----------7-7-7-7-----------7-7-7-7--|
D--7-7-7-7--7-7-7-7--7-7-7-7--7-7-7-7--|
A--7-7-7-7--5-5-5-5--7-7-7-7--5-5-5-5--|
E--5-5-5-5-----------5-5-5-5-----------|


           enjoy...

Almost there ...

Sign in to get your own page with links to favourite songs and more. You are just one click away...

Login with Facebook Login with Google